One Brown Mouse Tabs & Lyrics by Jethro Tull

One Brown Mouse

guitar tabs lyrics

Jethro Tull

Album : Heavy Horses progressive rock PlayStop


One Brown Mouse-Jethro Tull-Intro

D A A A A A
e ||(2)------------------0-------0--0---------------------|
B ||-3-3-3^2^3-2---0-----2-3-2-3-2-3-3-2-3-0--------------|
G ||-2-----------2---2-0-2-------2-----------2------------|
D ||-0-------------------2-------2------------------------|
A ||---------------------0-------0------------------------|
E ||------------------------------------------------------|

D D A A
e ||-2-------------(2)------------------0-------0--0----------------|
B ||-3---------3-3--3-3-3^2^3-2---0-----2-3-2-3-2-3-3-2-3-0---------|
G ||-2-2-2-0-2-2-0--2-----------2---2-0-2-------2-----------0^2-----|
D ||-0----4----0-0--0-------------------2-------2-------------------|
A ||------------------------------------0-------0-------------------|
E ||----------------------------------------------------------------|

Like us on Facebook.....
-> Loading Time :0.0165 sec