New Noise Tabs & Lyrics by Refused

New Noise

guitar tabs lyrics

Refused

Album : The Shape of Punk to Come hardcore PlayStop



NEW NOISE
As recorded by Refused
(From the 1998 Album THE SHAPE OF PUNK TO COME)

Transcribed by new_noise


Words and Music by Refused

D5
0 0 0 x x x

E5
2 2 2 x x x

F5
3 3 3 x x x

Gtr I (D A D G B E) - 'Gtr I'
Gtr II (D A D G B E) - 'Gtr II'
Gtr III (D A D G B E) - 'Synth'
Gtr IV (D A D G B E) - 'Clean Gtr'
Gtr V (D A D G B E) - 'Gtr V'

Intro
Terrifying Hardcore Punk Q=105
N.C.
4/4
Gtr I
PM--------------------------------------------------------------|
S S S S S S S S S S S S S S S S S S S S S S S S S S S S S S S S
||----------------------------------|---------------------------------|
||o-3-5-5-5-5-5-3-5-5-5-5-5-3-5-5-5-|-8-5-3-5-5-5-5-5-3-5-5-5-5-5-3-5-|
||----------------------------------|---------------------------------|
||----------------------------------|---------------------------------|
||o---------------------------------|---------------------------------|
||----------------------------------|---------------------------------|


PM--------------------------------------------------------------|
S S S S S S S S S S S S S S S S S S S S S S S S S S S S S S S S 4x
|---------------------------------|----------------------------------||
|-7-5-3-5-5-5-5-5-3-5-5-5-5-5-3-5-|-6-5-3-5-5-5-5-5-5-5-5-5-5-5-5-5-o||
|---------------------------------|----------------------------------||
|---------------------------------|----------------------------------||
|---------------------------------|---------------------------------o||
|---------------------------------|----------------------------------||
|
| Gtr II
| W H S S S S S S S S 4x
|---------------------------------|-------------------0---0---0---0--||
|---------------------------------|-----------------5---5---5---5---o||
|---------------------------------|----------------------------------||
|---------------------------------|----------------------------------||
|---------------------------------|---------------------------------o||
|---------------------------------|----------------------------------||


PM--------------------------------------------------------------------|
S S S S S S S S S S S S S S S S S S S S S S S S S S S S S S S S
|------------------------------------|------------------------------------|
|-3-5--5-5-5-5-3-5-5-5-5-5--3--5-5-5-|-8-5--3-5-5-5-5-5-3-5-5-5--5--5-3-5-|
|------------------------------------|------------------------------------|
|------------------------------------|------------------------------------|
|------------------------------------|------------------------------------|
|------------------------------------|------------------------------------|
|
| W W
|------------------------------------|------------------------------------|
|------------------------------------|------------------------------------|
|------------------------------------|------------------------------------|
|------------------------------------|------------------------------------|
|------------------------------------|------------------------------------|
|------------------------------------|------------------------------------|
|
| Gtr V
| ~~~ ~~ ~~~
| S E. S S S S S S S S +Q S E. S S S S S S S S +Q
|------------------------------------|------------------------------------|
|------------------------------------|------------------------------------|
|------------------------------------|------------------------------------|
|------------------------------------|------------------------------------|
|------------------------------------|------------------------------------|
|-0h2------2-2-0h2-3p2p0-3-(3)-------|-0-2------2-2-0h2-3p2p0-3-(3)-------|


PM----------------------------------------------------------------------|
S S S S S S S S S S S S S S S S S S S S S S S S S S S S S S S S
|-------------------------------------|-------------------------------------|
|-7-5--3--5-5-5-5-5-3-5-5-5--5--5-3-5-|-6-5--3--5-5-5-5-5-5-5-5-5--5--5-5-5-|
|-------------------------------------|-------------------------------------|
|-------------------------------------|-------------------------------------|
|-------------------------------------|-------------------------------------|
|-------------------------------------|-------------------------------------|
|
| W H S S S S S S S S
|-------------------------------------|---------------------0---0-----0---0-|
|-------------------------------------|-------------------5---5----5----5---|
|-------------------------------------|-------------------------------------|
|-------------------------------------|-------------------------------------|
|-------------------------------------|-------------------------------------|
|-------------------------------------|-------------------------------------|
|
| ~~~ ~~~ ~~~ ~~~
| S S +E S S S S S S S S +Q S S +E S S S S S S S S +Q
|-------------------------------------|-------------------------------------|
|-------------------------------------|-------------------------------------|
|-------------------------------------|-------------------------------------|
|-------------------------------------|-------------------------------------|
|-------------------------------------|-------------------------------------|
|-0h2-(2)---2-2-0h2-3p2p0-3-(3)-------|-0h2-(2)---2-2-0h2-3p2p0-3-(3)-------|


>
Q. S S S S S S +S S S S Q. S S S S S S +S S S S
|----------------------------|----------------------------|
|----------------------------|----------------------------|
|----------------------------|----------------------------|
|-2----0h2-3p2-0h3-(3)-3-3-3-|-2----0h2-3p2-0h3-(3)-3-3-3-|
|----------------------------|----------------------------|
|----------------------------|----------------------------|
|
| Gtr III
| <
| W H e e e e
|----------------------------|----------------------------|
|----------------------------|----------------------------|
|----------------------------|----------------------------|
|----------------------------|----------------------------|
|----------------------------|----------------------------|
|----------------------------|----------2---2----2----2---|


W W 4x
||----------------------------|--------------------||
||o---------------------------|-------------------o||
||----------------------------|--------------------||
||----------------------------|--------------------||
||o---------------------------|-------------------o||
||----------------------------|--------------------||
|
| e e e e e e e e e e e e e e e e 4x
||----------------------------|--------------------||
||o---------------------------|-------------------o||
||----------------------------|--------------------||
||----------------------------|--------------------||
||o---------------------------|-------------------o||
||--2-(2)-(2)-(2)-(2)-(2)-0-2-|-3-2-0-2-3-2-0-2----||


Chorus
$
D5E5 D5E5F5E5D5F5 D5E5 D5E5F5E5D5F5
Gtrs I, II
S S S S S S S S S S S S +Q S S S S S S S S S S S S +Q
||-------------------------------|------------------------------|
||o------------------------------|------------------------------|
||-------------------------------|------------------------------|
||--0h2-2-2-2-2-0h2-3p2p0-3-(3)--|-0h2-2-2-2-2-0h2-3p2p0-3-(3)--|
||o-0-2-2-2-2-2-0-2-3-2-0-3-(3)--|-0-2-2-2-2-2-0-2-3-2-0-3-(3)--|
||--0h2-2-2-2-2-0h2-3p2p0-3-(3)--|-0h2-2-2-2-2-0h2-3p2p0-3-(3)--|


D5E5 D5E5F5E5D5F5 D5E5 D5E5F5E5D5
S S S S S S S S S S S S +Q S S S S S S S S S S e Q
|------------------------------|----------------------------||
|------------------------------|---------------------------o||
|------------------------------|----------------------------||
|-0h2-2-2-2-2-0h2-3p2p0-3-(3)--|-0h2-2-2-2-2-0h2-3p2p0------||
|-0-2-2-2-2-2-0-2-3-2-0-3-(3)--|-0-2-2-2-2-2-0-2-3-2-0-----o||
|-0h2-2-2-2-2-0h2-3p2p0-3-(3)--|-0h2-2-2-2-2-0h2-3p2p0------||


Verses I & II
N.C.
Gtr I
PM--------------------------------------------------------------|
S S S S S S S S S S S S S S S S S S S S S S S S S S S S S S S S
|---------------------------------|---------------------------------|
|-3-5-5-5-5-5-3-5-5-5-5-5-3-5-5-5-|-8-5-3-5-5-5-5-5-3-5-5-5-5-5-3-5-|
|---------------------------------|---------------------------------|
|---------------------------------|---------------------------------|
|---------------------------------|---------------------------------|
|---------------------------------|---------------------------------|


PM--------------------------------------------------------------|
S S S S S S S S S S S S S S S S S S S S S S S S S S S S S S S S
|---------------------------------|---------------------------------|
|-7-5-3-5-5-5-5-5-3-5-5-5-5-5-3-5-|-6-5-3-5-5-5-5-5-5-5-5-5-5-5-5-5-|
|---------------------------------|---------------------------------|
|---------------------------------|---------------------------------|
|---------------------------------|---------------------------------|
|---------------------------------|---------------------------------|
|
| Gtr II
| W H S S S S S S S S
|---------------------------------|-------------------0---0---0---0-|
|---------------------------------|-----------------5---5---5---5---|
|---------------------------------|---------------------------------|
|---------------------------------|---------------------------------|
|---------------------------------|---------------------------------|
|---------------------------------|---------------------------------|


Esus2 Dsus2
Gtr I
PM----------------------------------------------------------------|
S S S S S S S S S S S S S S S S S S S S S S S S S S S S S S S S
|-----------------------------------|---------------------------------|
|-3-5-5-5-5-5-3-5--5--5-5-5-3-5-5-5-|-8-5-3-5-5-5-5-5-3-5-5-5-5-5-3-5-|
|-----------------------------------|---------------------------------|
|-----------------------------------|---------------------------------|
|-----------------------------------|---------------------------------|
|-----------------------------------|---------------------------------|
|
| W W
|-----------------------------------|---------------------------------|
|-----------------------------------|---------------------------------|
|-----------------------------------|---------------------------------|
|-----------------------------------|---------------------------------|
|-----------------------------------|---------------------------------|
|-----------------------------------|---------------------------------|
|
| Gtr IV
| H H W
|-----------------------------------|-0-------------------------------|
|-----------------------------------|-3-------------------------------|
|------------------4----------------|-2-------------------------------|
|-2----------------4----------------|-0-------------------------------|
|-2---------------(2)---------------|---------------------------------|
|-2---------------(2)---------------|---------------------------------|


D.S.
E5 B5
PM----------------------------------------------------------------|
S S S S S S S S S S S S S S S S S S S S S S S S S S S S S S S S
|-----------------------------------|---------------------------------||
|-7-5-3-5-5-5-5-5--3--5-5-5-5-5-3-5-|-6-5-3-5-5-5-5-5-5-5-5-5-5-5-5-5-||
|-----------------------------------|---------------------------------||
|-----------------------------------|---------------------------------||
|-----------------------------------|---------------------------------||
|-----------------------------------|---------------------------------||
|
| Gtr II
| W H S S S S S S S S
|-----------------------------------|-------------------0---0---0---0-||
|-----------------------------------|-----------------5---5---5---5---||
|-----------------------------------|---------------------------------||
|-----------------------------------|---------------------------------||
|-----------------------------------|---------------------------------||
|-----------------------------------|---------------------------------||
|
| H H W
|-----------------------------------|---------------------------------||
|-----------------------------------|---------------------------------||
|------------------4----------------|-4-------------------------------||
|-2----------------2----------------|-4-------------------------------||
|-2---------------(2)---------------|-2-------------------------------||
|-2---------------(2)---------------|---------------------------------||


Bridge
E5 D
Gtrs I, II
Q E S S +E E E S S Q E S S +E E E S S
||-----------------------|----------------------|
||o----------------------|----------------------|
||--4--4-4-4-(4)-4-4-x-x-|-2--2-2-2-(2)-2-2-----|
||--2--2-2-2-(2)-2-2-x-x-|-4--4-4-4-(4)-4-4-----|
||o-2--2-2-2-(2)-2-2-x-x-|-0--0-0-0-(0)-0-0-0-0-|
||--2--2-2-2-(2)-2-2-x-x-|-0--0-0-0-(0)-0-0-0-0-|


1.
E5 Esus2 B5
Q E S S +E E E S S Q E S S +E E E E
|----------------------|-------------------------------||
|----------------------|------------------------------o||
|-4--4-4-4-(4)-4-4-x-x-|-11--11-11-11-(11)-11-11-11\---||
|-2--2-2-4-(4)-4-4-x-x-|--9---9--9--9--(9)--9--9--9\---||
|-2--2-2-2-(2)-2-2-x-x-|--9---9--9--9--(9)--9--9--9\--o||
|-2--2-2-2-(2)-2-2-x-x-|--9---9--9--9--(9)--9--9--9\---||


2.
B5 Asus2
Q E S S +E E E S S Q E S S +E E E S S
|-------------------------------|----------------------|
|-------------------------------|----------------------|
|-11--11-11-11-(11)-11-11-11-11-|-9--9-9-9-(9)-9-9-9-9-|
|--9---9--9--9--(9)--9--9--9--9-|-9--9-9-9-(9)-9-9-9-9-|
|--9---9--9--9--(9)--9--9--9--9-|-7--7-7-7-(7)-7-7-7-7-|
|--9---9--9--9--(9)--9--9--9--9-|-7--7-7-7-(7)-7-7-7-7-|


Gsus2 F5
Q E S S +E E E S S E S S +S S E E E S S S S
|----------------------|-----------------------------||
|----------------------|-----------------------------||
|-7--7-7-7-(7)-7-7-7-7-|-5-5-5-(5)-5-5-5-5-5-5-5-5---||
|-7--7-7-7-(7)-7-7-7-7-|-3-3-3-(3)-3-3-3-3-3-3-3-3---||
|-5--5-5-5-(5)-5-5-5-5-|-3-3-3-(3)-3-3-3-3-3-3-3-3---||
|-5--5-5-5-(5)-5-5-5-5-|-3-3-3-(3)-3-3-3-3-3-3-3-3---||


Breakdown
D5E5 D5E5 D5E5 D5E5 E5
S S Q S S S S Q. S S Q S S S S Q.
||----------------------|----------------------||
||o---------------------|---------------------o||
||----------------------|----------------------||
||--0h2----0h2---2------|-0h2----0h2---2-------||
||o-0-2----0-2---2------|-0-2----0-2---2------o||
||--0h2----0h2---2------|-0h2----0h2---2-------||


D5E5 D5E5 D5E5 D5E5 E5
Gtrs I, II
S S Q S S S S Q. S S Q S S S S Q.
| | | | | | | | | |
/ / / / / / / / / /

Gtr V
PM----------------------------------------------------------------|
S S S S S S S S S S S S S S S S S S S S S S S S S S S S S S S S
|----------------------------------|----------------------------------|
|-3-5-5-5-5-5-3-5-5-5-5--5-3-5-5-5-|-8-5-3-5-5-5-5-5-3-5-5--5-5-5-3-5-|
|----------------------------------|----------------------------------|
|----------------------------------|----------------------------------|
|----------------------------------|----------------------------------|
|----------------------------------|----------------------------------|


D5E5 D5E5
Gtrs I, II
S S Q S S S S Q.
|----------------------------------|
|----------------------------------|
|----------------------------------|
|-0h2---------0h2---2--------------|
|-0-2---------0-2---2--------------|
|-0h2---------0h2---2--------------|
|
| Gtr V
| PM--------------------------------
| S S S S S S S S S S S S S S S S
|----------------------------------|
|-7-5-3-5-5-5-5-5-3-5-5--5-5-5-3-5-|
|----------------------------------|
|----------------------------------|
|----------------------------------|
|----------------------------------|


Esus2 D5
2/4
E. S +E E +H +Q. E
|----------------------------------------|-------------------|
|----------------------------------------|-------------------|
|---------4--(4)---4---(4)---------------|-(4)---------------|
|-2-------2--(2)---4---(4)---------------|-(4)-----------0---|
|-2-------2--(2)---2---(2)---------------|-(2)-----------0---|
|-2------(2)-(2)---2---(2)---------------|-(2)-----------0---|
|
|----------------|
| S S S S S S S S S S S S S S S S S S S S S S S S
|------------------0----0----0---0---0---|--0----0---0---0---|
|-6--5-3--5---5--5---5-----5---5---5---5-|-----5---5---5---5-|
|----------------------------------------|-------------------|
|----------------------------------------|-------------------|
|----------------------------------------|-------------------|
|----------------------------------------|-------------------|


Verse III
E5
4/4
Gtr I
E E H. W
|----------------------------------|----------------------------------|
|----------------------------------|----------------------------------|
|----------------------------------|----------------------------------|
|-2--------------------------------|----------------------------------|
|-2--------------------------------|----------------------------------|
|-2--------------------------------|----------------------------------|
|
| PM---------------------------------------------------------------|
| S S S S S S S S S S S S S S S S S S S S S S S S S S S S S S S S
|----------------------------------|----------------------------------|
|-3-5-5-5-5--5-3-5-5-5-5-5-3-5-5-5-|-8-5-3-5-5-5-5-5-3-5-5-5-5-5-3-5--|
|----------------------------------|----------------------------------|
|----------------------------------|----------------------------------|
|----------------------------------|----------------------------------|
|----------------------------------|----------------------------------|


N.C.
W H S S S S S S S S
|---------------------------------|-------------------0---0---0---0-|
|---------------------------------|-----------------5---5---5---5---|
|---------------------------------|---------------------------------|
|---------------------------------|---------------------------------|
|---------------------------------|---------------------------------|
|---------------------------------|---------------------------------|
|
| PM--------------------------------------------------------------|
| S S S S S S S S S S S S S S S S S S S S S S S S S S S S S S S S
|---------------------------------|---------------------------------|
|-7-5-3-5-5-5-5-5-3-5-5-5-5-5-3-5-|-6-5-3-5-5-5-5-5-3-5-5-5-5-5-3-5-|
|---------------------------------|---------------------------------|
|---------------------------------|---------------------------------|
|---------------------------------|---------------------------------|
|---------------------------------|---------------------------------|


N.C.
4/4
W W
|---------------------------------|----------------------------------|
|---------------------------------|----------------------------------|
|---------------------------------|----------------------------------|
|---------------------------------|----------------------------------|
|---------------------------------|----------------------------------|
|---------------------------------|----------------------------------|
|
| PM--------------------------------------------------------------|
| S S S S S S S S S S S S S S S S S S S S S S S S S S S S S S S S
|---------------------------------|----------------------------------|
|-3-5-5-5-5-5-3-5-5-5-5-5-3-5-5-5-|-8-5-3-5-5-5-5-5-3-5-5-5-5-5-3-5--|
|---------------------------------|----------------------------------|
|---------------------------------|----------------------------------|
|---------------------------------|----------------------------------|
|---------------------------------|----------------------------------|


N.C.
W H S S S S S S S S
|---------------------------------|-------------------0---0---0---0-||
|---------------------------------|-----------------5---5---5---5---||
|---------------------------------|---------------------------------||
|---------------------------------|---------------------------------||
|---------------------------------|---------------------------------||
|---------------------------------|---------------------------------||
|
| PM--------------------------------------------------------------|
| S S S S S S S S S S S S S S S S S S S S S S S S S S S S S S S S
|---------------------------------|---------------------------------||
|-7-5-3-5-5-5-5-5-3-5-5-5-5-5-3-5-|-6-5-3-5-5-5-5-5-3-5-5-5-5-5-3-5-||
|---------------------------------|---------------------------------||
|---------------------------------|---------------------------------||
|---------------------------------|---------------------------------||
|---------------------------------|---------------------------------||


Breakdown II
N.C. D5E5 D5E5F5E5D5F5
>
W Wx5 S S S S S S S S S S S S +Q 3x
|----------|------------||--------------------------------||
|-5--------|------------||o------------------------------o||
|----------|------------||--------------------------------||
|----------|------------||--0h2-2-2-2-2-0h2-3p2p0-3-(3)---||
|----------|------------||o-0-2-2-2-2-2-0-2-3-2-0-3-(3)--o||
|----------|------------||--0h2-2-2-2-2-0h2-3p2p0-3-(3)---||
|
| >
| W Wx5 W 3x
|----------|------------||--------------------------------||
|-5--------|------------||o------------------------------o||
|----------|------------||--------------------------------||
|----------|------------||--------------------------------||
|----------|------------||o------------------------------o||
|----------|------------||--------------------------------||


D5E5 D5E5F5E5D5
S S S S S S S S S S e Q
|---------------------------|
|---------------------------|
|---------------------------|
|-0h2-2-2-2-2-0h2-3p2p0-----|
|-0-2-2-2-2-2-0-2-3-2-0-----|
|-0h2-2-2-2-2-0h2-3p2p0-----|
|
| W
|---------------------------|
|---------------------------|
|---------------------------|
|---------------------------|
|---------------------------|
|---------------------------|


1.
D5E5 D5E5F5E5D5F5 D5E5 D5E5F5E5D5F5
Gtrs I, II
S S S S S S S S S S S S +Q S S S S S S S S S S S S +Q
||-------------------------------|-------------------------------||
||o------------------------------|------------------------------o||
||-------------------------------|-------------------------------||
||--0h2-2-2-2-2-0h2-3p2p0-3-(3)--|-0h2-2-2-2-2-0h2-3p2p0-3-(3)---||
||o-0-2-2-2-2-2-0-2-3-2-0-3-(3)--|-0-2-2-2-2-2-0-2-3-2-0-3-(3)--o||
||--0h2-2-2-2-2-0h2-3p2p0-3-(3)--|-0h2-2-2-2-2-0h2-3p2p0-3-(3)---||


2.
D5E5 D5E5F5E5D5 N.C. F5
S S S S S S S S S S e Q Wx3 H. S S E
|--------------------------|------------|----------------|
|--------------------------|------------|----------------|
|--------------------------|------------|----------------|
|-0h2-2-2-2-2-0h2-3p2p0----|------------|---------3-3----|
|-0-2-2-2-2-2-0-2-3-2-0----|------------|---------3-3----|
|-0h2-2-2-2-2-0h2-3p2p0----|------------|---------3-3----|


Outro
D5E5 D5E5F5E5D5F5 E5 D5
S S S S S S S S S S S S +S S +S S
||--------------------------------------|
||o-------------------------------------|
||--------------------------------------|
||--0h2-2-2-2-2-0h2-3p2p0-3-(3)-2-(2)-0-|
||o-0-2-2-2-2-2-0-2-3-2-0-3-(3)-2-(2)-0-|
||--0h2-2-2-2-2-0h2-3p2p0-3-(3)-2-(2)-0-|


D5E5 D5E5F5E5D5F5 E5 D5
S S S S S S S S S S S S +S S +S S 4x
|---------------------------------------||
|--------------------------------------o||
|---------------------------------------||
|-0h2-2-2-2-2-0h2-3p2p0-3-(3)-2-(2)-0---||
|-0-2-2-2-2-2-0-2-3-2-0-3-(3)-2-(2)-0--o||
|-0h2-2-2-2-2-0h2-3p2p0-3-(3)-2-(2)-0---||


D5E5 D5E5 F5 E5 D5
Gtr I
S S e E S S S S S S +S S +S S
| | | | | | | | | | |
/ / / / / / / / / / /

Gtr II
S S S S S S S S S S S S +S S +S S
||--------------------------------------|
||o-------------------------------------|
||--------------------------------------|
||--0h2-2-2-2-2-0h2-3p2p0-3-(3)-2-(2)-0-|
||o-0-2-2-2-2-2-0-2-3-2-0-3-(3)-2-(2)-0-|
||--0h2-2-2-2-2-0h2-3p2p0-3-(3)-2-(2)-0-|


E5 D5E5 F5 E5 D5
S S e E S S S S S S +S S +S S
| | | | | | | | | | |
/ / / / / / / / / / /

S S S S S S S S S S S S +S S +S S
|---------------------------------------||
|--------------------------------------o||
|---------------------------------------||
|-0h2-2-2-2-2-0h2-3p2p0-3-(3)-2-(2)-0---||
|-0-2-2-2-2-2-0-2-3-2-0-3-(3)-2-(2)-0--o||
|-0h2-2-2-2-2-0h2-3p2p0-3-(3)-2-(2)-0---||


D5E5 D5E5 E5 F5 E5 D5 D5E5 D5E5 E5 F5 E5 D5
Gtrs I, II
S S e E S S S S S S +S S +S S S S e E S S S S S S +S S +S S
||----------------------------------|----------------------------------||
||o---------------------------------|---------------------------------o||
||----------------------------------|----------------------------------||
||--0h2-2---0h2---2---3-(3)-2-(2)-0-|-0h2-2---0h2---2---3-(3)-2-(2)-0--||
||o-0-2-2---0-2---2---3-(3)-2-(2)-0-|-0-2-2---0-2---2---3-(3)-2-(2)-0-o||
||--0h2-2---0h2---2---3-(3)-2-(2)-0-|-0h2-2---0h2---2---3-(3)-2-(2)-0--||


Outro
D5E5 D5E5F5E5D5F5 E5 D5 E5
S S S S S S S S S S S S +S S +S S 4x W +W
||---------------------------------------||----------:--------*|
||o-------------------------------------o||----------:--------*|
||---------------------------------------||----------:--------*|
||--0h2-2-2-2-2-0h2-3p2p0-3-(3)-2-(2)-0--||-2--------:-(2)----*|
||o-0-2-2-2-2-2-0-2-3-2-0-3-(3)-2-(2)-0-o||-2--------:-(2)----*|
||--0h2-2-2-2-2-0h2-3p2p0-3-(3)-2-(2)-0--||-2--------:-(2)----*|



Duration Legend
---------------
W - whole; H - half; Q - quarter; E - 8th; S - 16th; T - 32nd; X - 64th; a - acciaccatura
+ - note tied to previous; . - note dotted; .. - note double dotted
Uncapitalized letters represent notes that are staccato (1/2 duration)
Irregular groupings are notated above the duration line
Duration letters will always appear directly above the note/fret number it represents the
duration for. Duration letters with no fret number below them represent rests. Multi-
bar rests are notated in the form Wxn, where n is the number of bars to rest for. Low
melody durations appear below the staff

Tablature Legend
----------------
h - hammer-on
p - pull-off
b - bend
pb - pre-bend
r - bend release (if no number after the r, then release immediately)
/\ - slide into or out of (from/to "nowhere")
s - legato slide
S - shift slide
- natural harmonic
[n] - artificial harmonic
n(n) - tapped harmonic
~ - vibrato
tr - trill
T - tap
TP - trem. picking
PM - palm muting
\n/ - tremolo bar dip; n = amount to dip
\n - tremolo bar down
n/ - tremolo bar up
/n\ - tremolo bar inverted dip
= - hold bend; also acts as connecting device for hammers/pulls
- volume swell (louder/softer)
x - on rhythm slash represents muted slash
o - on rhythm slash represents single note slash

Misc Legend
-----------
| - bar
|| - double bar
||o - repeat start
o|| - repeat end
*| - double bar (ending)
: - bar (freetime)
$ - Segno
& - Coda
Tempo markers - = BPM(8/16=s8/s16), where s8 = swing 8ths, s16 = swing 16ths



Like us on Facebook.....
-> Loading Time :0.0326 sec