Busy Doing Nothing Tabs & Lyrics by Shelter

Busy Doing Nothing

guitar tabs lyrics

Shelter

Album : Attaining the Supreme punk rock PlayStop


-------------------------------------------------------------------------------
BUSY DOING NOTHING - Shelter
-------------------------------------------------------------------------------

By: DJOLE fatdjole@ptt.yu

http://members.fortunecity.com/youthoftoday

Intro
E|---------------------------------------------------------------------------|

B|---------------------------------------------------------------------(x2)--|
G|---------------------------------------------------------------------------|
Bass D|--7-7--5-5---------------7-7--5-5--5-7-9-7-5--5-----------------------|
A|------------7-7-7--5-5--------------------------7-5------------------------|
E|---------------------------------------------------------------------------|

E|---------------------------------------------------------------------------|
B|---------------------------------------------------------------------(x4)--|
G|---------------------------------------------------------------------------|
Guitar D|------5------5------5------5----------------------------------------|
A|--3-5----2-5----0-5----2-5-------------------------------------------------|
E|---------------------------------------------------------------------------|

Verse
E|-------------------------------------|-------------------------------------|
B|--------------------------------(x2)-|--*-*-*-*-*-*-------------------(x2)-|
G|--9-9-9-9-9-9--5-5-5-5--7-7-7-7------|--9-9-9-9-9-9--5-5-5-5--7-7-7-7------|
D|--9-9-9-9-9-9--5-5-5-5--7-7-7-7------|--9-9-9-9-9-9--5-5-5-5--7-7-7-7------|
A|--7-7-7-7-7-7--3-3-3-3--5-5-5-5------|--7-7-7-7-7-7--3-3-3-3--5-5-5-5------|
E|-------------------------------------|-------------------------------------|

Chorus
E|---------------------------------------------------------------------------|
B|----------------------------------------------------------------------(x4)-|
G|--4-4-4-4--5-5-5-5---------------------------------------------------------|
D|--4-4-4-4--5-5-5-5---------------------------------------------------------|
A|--2-2-2-2--3-3-3-3---------------------------------------------------------|
E|---------------------------------------------------------------------------|

Repeat Verse/Chorus

Break
E|--------------|--------------|---------------------------------------------|
B|--------(x2)--|--7-----(x2)--|---------------------------------------(x4)--|
G|--4--2--------|-----2--------|---------------------------------------------|
D|--4--2--------|--4--2--------|--*-*--5----*-*--5----*-*--5---*-*--5--------|
A|--2--0--------|-----0--------|--3-5-------2-5-------0-5------2-5-----------|
E|--------------|--------------|---------------------------------------------|

Repeat Verse/Chorus

===============================================================================

Like us on Facebook.....
-> Loading Time :0.0079 sec