Heartbeat Chords & Lyrics by Bleach

Heartbeat

guitar chords lyrics

Bleach

Album : BleachPlayStop


Intro: G Bm C G Bm C
Verse 1:
G
Itís been a long long time since
C
Since Iíve spent some time with you
G
Iím seeing lonely moments
C
Seeing lonely truths

Em
A distant tone has come to me
G
And now I find Iím missing
C
That old familiar tune
G
A song your heart has played me
C
A rhythm I once new

BRIDGE:
Em
So lay me down at your feet
C
And sing the words that you know I need

Chorus 1:
G C
Cause Iím here I want to hear your heartbeat
C D
Please put your love around me
C
And just let me know
G
That youíre here
C Em
Now Iím an arms reach from you
Em
From the lover of my soul


Verse 2:
G
And so ill fight the current
C
Iíll fight the undertow
G
Help me swim away from
C
Where my weakness grows

BRIDGE:
Em
So lay me down at your feet
C
And sing the words that you know I need


Chorus 2:
G C
Cause Iím here I want to hear your heartbeat
C D
Please put your love around me
C
And just let me know
G
That youíre here
C Em
Now Iím an arms reach from you
Em
From the lover of my soul
C
Youíre the lover of my soul


RIFF (Rhythm is G C G C G
G C)

E--19----------------------------------|
B-----19---15---10---8---7---5---------|
G--------------------------------------|

E--19-------------------------------------|
B-----19---15---10--8-9-8---7---5---3-----|
G-----------------------------------------|

E--------------------------------------|
B----------------------8--12--19--15---|
G--------------------------------------|
D--------------------------------------|
A--------------------------------------|
E--3---------15------------------------|

E-------------------------------------------|
B----------------------8--12--19--20----21--|
G-------------------------------------------|
D-------------------------------------------|
A-------------------------------------------|
E--3---------15-----------------------------|

Like us on Facebook.....
-> Loading Time :0.0082 sec