The Mighty Heroes Tabs & Lyrics by Sloppy Seconds

The Mighty Heroes

guitar tabs lyrics

Sloppy Seconds

Album : Knock Yer Block Off!PlayStop


-------------------------------------------------------------------------------
THE MIGHTY HEROES - Sloppy Seconds
-------------------------------------------------------------------------------
Tabbed by: Ricky Horror
Email: [email protected]

Tuning: standard

Key: * ~ palm mute
t ~ trill

h ~ hammer on
p ~ pull off
c ~ choke
s ~ scrape


Guitar 1

e|---------------|
B|---------------|
G|-9-99--9-9-99-9| x2
D|-7-77--7-7-77-7|
A|-7-77--7-7-77-7|
E|---------------|

Guitar 2

D|-6`7-9-7-9-----| x2
t h p h


Verse

Guitar 1
e|---------|
B|---------|
G|-9-9-----| x2
D|-9-9-7-9-|
A|-7-7-7-9-|
E|-----5-7-|
* * * *
Guitar 2 (repeat intro)

Pre-Chorus

e|-----------------|
B|-----------------|
G|---------9-8-6---|x2
D|-7-7-9-9-9-8-6-9-|
A|-7-7-9-9-7-6-4-9-|
E|-5-5-7-7-------7-|
***************
Guitar 2

G|-------9-8-6---|x2
D|-7--9--------9-|


Chorus
G1
e|---------|
B|---------|
G|---------|x1
D|-7-9-7-9-|
A|-7-9-7-9-|
E|-5-7-5-7-|
*********
G2
D|-7-9-7-9-|


Bridge

Guitar 1
e|---------------|
B|---------------|
G|-9-------9-----|
D|-9---7-9-9-7-7-|
A|-7---7-9-7-7-7-|
E|-----5-7---5-5-|
* * * c s

Not sure what G2 plays for bridge

Solo:

Guitar 1 repeats verse
Guitar 2 - i'm not that good


Outro

G1&2 - repeat intro
G1 ends on
G|-9-|let ring
D|-9-|
A|-7-|
E|---|


Song Pattern


intro
verse
prechorus
chorus
intro
verse
prechorus
chorus
intro
bridge
prechorus
chorus
intro
G1-verse G2-plays solo until chorus
G1-prechorus
chorus
outro


NOTES:

I'm pretty sure Guitar 1 is 100% accurate, Guitar 2 i'm not sure.
Any questions, comments, suggestions or corrections just Email me. Happy rocking kids!

Intro - Guitar 1: Listen for strum pattern
(if you count 1e&a 2e&a Etc. its 1, a2, a,e, a4, a)

Guitar 2: I think the trill is 6`7. It starts on 3rd beat.
(just before you repeat the g1's strum pattern)

Bridge - G1: Let the first chord ring, palm mute the rest.
G2: I can't tell what guitar 2 does for the bridge.


Like us on Facebook.....
-> Loading Time :0.0121 sec