Gor-Gor Tabs & Lyrics by GWAR

Gor-Gor

guitar tabs lyrics

GWAR

Album : America Must Be Destroyed hard rock PlayStop


-------------------------------------------------------------------------------
Gor Gor - GWAR
-------------------------------------------------------------------------------
Tabbed by: Chris "|SpitFire|" Conner
Email: [email protected]

Tuning: E-Flat

Intro:

eb--------------------------------|--------------------------------|
Bb--------------------------------|--------------------------------|
Gb--------------------------------|--------------------------------|
Db--------------------------------|--------------------------------|
Ab-7---7---7---7---7---7---7---7--|-8---8---8---8---8---8---8---8--|
Eb-5---5---5---5---5---5---5---5--|-6---6---6---6---6---6---6---6--|x2


Chorus:
On 3rd time
eb-------------------------|--------|
Bb-------------------------|--------|
Gb-------------------------|--------|
Db-9-9---------8---7-10-10-|--9--9--|
Ab-7-7---------6---5--8--8-|--7--7--|
Eb-----0-0-0-0---0---------|--------|x2
. . . . .


Verse:

eb-------------------------------------|
Bb-------------------------------------|
Gb-------------------------------------|
Db-3-3---------3---------3-3---------4-|
Ab-1-1---------1---------1-1-----5-4-2-|
Eb-----0-0-0-0---0-0-0-0-----0-0-3-2---|x4


Break:
x3
eb----------------------|-----------------------|
Bb----------------------|-----------------------|
Gb----------------------|-----------------------|
Db------------------3---|-----------------------|
Ab---------3-2------1-4-|---------3-2-----------|
Eb-0-3-2-1-----3-0----2-|-0-3-2-1-----3-0-------|


Bridge:

eb----------------------------------------------------------|
Bb----------------------------------------------------------|
Gb----------------------------------------------------------|
Db----------------------------------------------------------|
Ab---------3-----4-----3---5-5---------3-----4-----3---6-5--|
Eb-0-0-0-0-1-0-0-2-0-0-1-0-3-3-0-0-0-0-1-0-0-2-0-0-1-0-4-3--|
. . . . . . . . . . . . . . . .

eb---------------------------------------------------------|
Bb---------------------------------------------------------|
Gb---------------------------------------------------------|
Db---------------------------------------------------5-4---|
Ab---------3-----4-----3---5-5---------3-----4-6-5---3-2-3-|
Eb-0-0-0-0-1-0-0-2-0-0-1-0-3-3-0-0-0-0-1-0-0-2-4-3-0-----1-|
. . . . . . . . . . . . .

eb-------------------------------777-------|
Bb----------------------------777---777----|
Gb-4-4-4-4-4-4-4-4-4-4-4-4-444-------------|
Db-----------------------------------------|
Ab-----------------------------------------|
Eb-----------------------------------------|



| / slide up
| \ slide down
| h hammer-on
| p pull-off
| ~ vibrato
| + harmonic
| x Mute note
===============================================================================



Like us on Facebook.....
-> Loading Time :0.0161 sec