Fight the Good Fight Tabs & Lyrics by Triumph

Fight the Good Fight

guitar tabs lyrics

Triumph

Album : King Biscuit Flower Hour: Triumph hard rock PlayStop


FIGHT THE GOOD FIGHT


|------------------------------12---||--13-----------15---12------------------|
|-------------------------15--------||o----------------------------13---15----|
|-----------------------------------||----------------------------------------|
|-----------------------------------||----------------------------------------|
|-----------------------------------||o---------------------------------------|
|-----------------------------------||----------------------------------------|



|-----------------------------------||----------------------------------------|
|---6-----6---------6------6--------||o----6-----6------6----5------5------3--|
|-----9-----9---9-----9------9----9-||-------7-----7-----------5------5-------|
|-------7-----7---------7-------7---||---------7------7----------5-------5----|
|-5---------------5-----------------||o--5-----------------3------------------|
|-----------------------------------||----------------------------------------|


(Eb) (Bb) (Db) (Ab)
|--------------13----------------------|--------------------------------------|
|-16----------------15------------13---|-14-----------16---13------------13---|
|----------------------------15--------|----------------------------13--------|
|--------------------------------------|--------------------------------------|
|--------------------------------------|--------------------------------------|
|--------------------------------------|--------------------------------------|
|
|--------------------------------------|--------------------------------------|
|----4-----4------4----3------3------1-|----2-----2------2--------------------|
|------3-----3-----------3------3------|------1-----1---------5------5------5-|
|--------5------3----------3-------3---|--------3------3--------6-------------|
|--6-----------------1-----------------|--4-----------------------6-------6---|
|--------------------------------------|--------------------4----------4------|


1. 2.
(Gm) (Csus2) (Gm) Csus2
2/4
|--------------------------------12--||------------------8-------|-(8)----||
|-11---------------13-------15------o||-11-----------------------|--------||
|------------------------------------||--------------------------|--------||
|------------------------------------||--------------------------|--------||
|-----------------------------------o||--------------------------|--------||
|------------------------------------||--------------------------|--------||
|
|----------3-----------------3-------||----------3---------------|-^3-----||
|----3-------3---3----3--------3----o||----3-------3---3-------3-|-^3-----||
|------3-------3--------5---------5--||------3-------3-------5---|-^5-----||
|--------5----------------5----------||--------5-----------5-----|-^5-----||
|-------------------3---------------o||------------------3-------|-^3-----||
|--3---------------------------------||--3-----------------------|--------||


Slight accel Q=90
Dm/A C/G F/A G5 N.C.
4/4
Gtr III
|-8s20---------||-----------------------------|------------------------------|
|--------------||o-6-6-6-6-6-6--5-5-5-6-5-x-x-|-3-(3)-3--x-3-----------------|
|--------------||--7-7-7-7-7-7--5-5-5-5-5-x-x-|-0-(0)-0--x-0-----------------|
|--------------||--7-7-7-7-7-7--5-5-5-7-5-x-x-|-5-(5)-5--x-5--------3-2-0----|
|--------------||o----------------------------|---------------0-2-3-------3--|
|--------------||-----------------------------|------------------------------|
|
| Gtr IV
|---(3)--------||-----------------------------|------------------------------|
|---(3)--------||o----------------------------|------------------------------|
|---(5)--------||-----------------------------|------------------------------|
|---(5)--------||----------2------------------|---------------------3-2-0----|
|---(3)--------||o-5-5-5-5---5--3-3-3-5-3-----|-2-----5-------0-2-3-------3--|
|--------------||-----------------------------|------------3-----------------|


Q=91 1.
Dm/A C/G F/A G5 G/D C5/G/D
|----------------------------|---------------------------------------||
|-6-6-6-6-6-6--5-5-5-6-5-x-x-|-3-(3)-3--x-3-(3)-/12-12-12-13-12-----o||
|-7-7-7-7-7-7--5-5-5-5-5-x-x-|-0-(0)-0--x-0-(0)---0--0--0--0--0------||
|-7-7-7-7-7-7--5-5-5-7-5-x-x-|-5-(5)-5--x-5-(5)-/12-12-12-12-12------||
|----------------------------|--------------------------------------o||
|----------------------------|---------------------------------------||
|
|----------------------------|---------------------------------------||
|----------------------------|--------------------------------------o||
|----------------------------|---------------------------------------||
|---------2------------------|-----------------------5-----5---------||
|-5-5-5-5---5--3-3-3-5-3-----|-2-----5--------------------------2-3-o||
|----------------------------|------------3--------------------------||


2. Q
G5 G/D
|--------------------------------------|
|-3-(3)-3--x-3-(3)-/12-12-12-13-12-----|
|-0-(0)-0--x-0-(0)---0--0--0--0--0-----|
|-5-(5)-5--x-5-(5)-/12-12-12-12-12-----|
|--------------------------------------|
|--------------------------------------|
|
|--------------------------------------|
|--------------------------------------|
|--------------------------------------|
|-----------------------5-----5--3-----|
|-2-----5--------------------------5-3-|
|------------3-------------------------|


1st and 2nd Verse
=90
Dm/A C/G F/A G5 N.C.
||-----------------------------|-----------------------------|
||o-6-6-6-6-6-6--5-5-5-6-5-x-x-|-3-(3)-3--x-3----------------|
||--7-7-7-7-7-7--5-5-5-5-5-x-x-|-0-(0)-0--x-0----------------|
||--7-7-7-7-7-7--5-5-5-7-5-x-x-|-5-(5)-5--x-5--------3-2-0---|
||o----------------------------|---------------0-2-3-------3-|
||-----------------------------|-----------------------------|
|
| PM--| PM--|
||-----------------------------|-----------------------------|
||o---------6-6--------6-5-----|-------0---------------------|
||--7-7-7---7-7--5-5-5-5-5-----|-------0----0----------------|
||--7-7-7---7-7--5-5-5-7-5-----|---------------------3-2-0---|
||o----------------------------|-2-------------0-2-3-------3-|
||-----------------------------|-----------------------------|


Dm/A C/G F/C/G G5 G/D C5/G/D
|----------------------------|------------------------------------|
|-6-6-6-6-6-6--5-5-5-6-5-x-x-|-3-(3)-3--x-3-(3)-/12-12-12-13-12---|
|-7-7-7-7-7-7--5-5-5-5-5-x-x-|-0-(0)-0--x-0-(0)---0--0--0--0--0---|
|-7-7-7-7-7-7--5-5-5-7-5-x-x-|-5-(5)-5--x-5-(5)-/12-12-12-12-12---|
|----------------------------|------------------------------------|
|----------------------------|------------------------------------|
|
| PM--| PM--|
|----------------------------|--------------------7--7--7--7--7---|
|---------6-6--------6-5-----|--------------------8--8--8--8--8---|
|-7-7-7---7-7--5-5-5-5-5-----|-4----------4-------7--7--7--7--7---|
|-7-7-7---7-7--5-5-5-7-5-----|-5-----5----5-----------------------|
|----------------------------|-------5----------------------------|
|----------------------------|------------------------------------|


Dm/A C/G F/C/G G5 N.C.
|----------------------------|-----------------------------|
|-6-6-6-6-6-6--5-5-5-6-5-x-x-|-3-(3)-3--x-3----------------|
|-7-7-7-7-7-7--5-5-5-5-5-x-x-|-0-(0)-0--x-0----------------|
|-7-7-7-7-7-7--5-5-5-7-5-x-x-|-5-(5)-5--x-5--------3-2-0---|
|----------------------------|---------------0-2-3-------3-|
|----------------------------|-----------------------------|
|
| PM--| PM--|
|----------------------------|-----------------------------|
|---------6-6--------6-5-----|-------0---------------------|
|-7-7-7---7-7--5-5-5-5-5-----|-------0----0----------------|
|-7-7-7---7-7--5-5-5-7-5-----|-0-------------------3-2-0---|
|----------------------------|-2-------------0-2-3-------3-|
|----------------------------|-----------------------------|


Pre-Chorus I, II
$
Dm/A C/G F/C/G G5 Bbadd9
Gtr II
|----------------------------|---------------||----------/13---|
|-6-6-6-6-6-6--5-5-5-6-5-x-x-|-3-3--3-(3)----||-\15------------|
|-7-7-7-7-7-7--5-5-5-5-5-x-x-|-0-0--0-(0)----||----------------|
|-7-7-7-7-7-7--5-5-5-7-5-x-x-|-0-0--0-(0)----||----------------|
|----------------------------|---------------||----------------|
|----------------------------|-3-3--3-(3)----||----------------|
|
| Gtrs III, IV
| PM--| PM--|
|----------------------------|---------------||---8------------|
|---------6-6--------6-5-----|-3-3--3-(3)----||---6------------|
|-7-7-7---7-7--5-5-5-5-5-----|-0-0--0-(0)----||---7------------|
|-7-7-7---7-7--5-5-5-7-5-----|-0-0--0-(0)----||---8------------|
|----------------------------|---------------||----------------|
|----------------------------|-3-3--3-(3)----||----------------|


Cadd9 Bbadd9 Cadd9
|-12------/13--|----------/13--|-12------/13--|
|--------------|-\15-----------|--------------|
|--------------|---------------|--------------|
|--------------|---------------|--------------|
|--------------|---------------|--------------|
|--------------|---------------|--------------|
|
|-10-----------|---8-----------|-10-----------|
|--8-----------|---6-----------|--8-----------|
|--9-----------|---7-----------|--9-----------|
|-10-----------|---8-----------|-10-----------|
|--------------|---------------|--------------|
|--------------|---------------|--------------|


slow a bit Q=87
Bbadd9 Cadd9
|----------/13--|--8----(8)----|--(8)-----12------||
|-\15-----------|--8----(8)----|--(8)-----(8)----o||
|---------------|--------9-----|--(9)-----(9)-----||
|---------------|--------------|--10-----(10)-----||
|---------------|--------------|-----------------o||
|---------------|--------------|------------------||
|
|---8-----------|-10-----------|-(10)-------------||
|---6-----------|--8-----------|--(8)------------o||
|---7-----------|--9-----------|--(9)-------------||
|---8-----------|-10-----------|-(10)-------------||
|---------------|--------------|-----------------o||
|---------------|--------------|------------------||


Chorus
Moderately Q=90
D5 A5Bb5 C5 G5 F5 D5 Bb5
Gtrs V, VI
|-------------------------|------------------|-------------------------|
|-------------------------|------------------|-------------------------|
|-7-7-x-x-x-2-3-3-x-x-x-x-|-5-5-x-x----------|-7-7-x-x-x-x-3-3-x-x-x-x-|
|-7-7-x-x-x-2-3-3-x-x-x-x-|-5-5-x-x-5\-5--3--|-7-7-x-x-x-x-3-3-x-x-x-x-|
|-5-5-x-x-x-0-1-1-x-x-x-x-|-3-3-x-x----5--3--|-5-5-x-x-x-x-1-1-x-x-x-x-|
|-------------------------|------------3--1--|-------------------------|


To Coda
C5 G5 F5 D5 A5Bb5 C5 G5 C5
|--------------------|-------------------------|-------------------|
|--------------------|-------------------------|-------------------|
|-5-5-x-x------------|-7-7-x-x-x-2-3-3-x-x-x-x-|-5-5-x-x-------5---|
|-5-5-x-x-5\-5-5-3-3-|-7-7-x-x-x-2-3-3-x-x-x-x-|-5-5-x-x-5\-5--5---|
|-3-3-x-x----5-5-3-3-|-5-5-x-x-x-0-1-1-x-x-x-x-|-3-3-x-x----5--3---|
|------------3-3-1-1-|-------------------------|------------3------|


Slower Q=84
Bb5 (Bbsus2) (Csus2)
Gtr III
|----------|---------1--------------------3--5-----3----|
|----------|------1-----1-----1--3-----3--------3-----3-|
|----------|--3------------3--------5-------------------|
|----------|--------------------------------------------|
|----------|--------------------------------------------|
|----------|--------------------------------------------|
|
| Gtr IV
|----------|--------13-------------------15-17----15----|
|----------|-----13----13----13-15----15-------15----15-|
|----------|-15-----------15-------17-------------------|
|----------|--------------------------------------------|
|----------|--------------------------------------------|
|----------|--------------------------------------------|
|
| Gtrs V, VI
| >
|----------|--------------------------------------------|
|----------|--------------------------------------------|
|-3--------|--------------------------------------------|
|-3--------|--------------------------------------------|
|-1--------|-(1)--------------------3-------------------|
|----------|--------------------------------------------|


Interlude
(Dm) (G/D)
||-------------1--------------------3-----------|
||o---------3-----3-----3--------3-----3-----3--|
||-------2-----------2--------4-----------4-----|
||---0---------------------0--------------------|
||o---------------------------------------------|
||----------------------------------------------|
|
||------------13-------------------15-----------|
||o--------15----15----15----12-15----15-12-15--|
||------14----------14--------------------------|
||--12--------------------12--------------------|
||o---------------------------------------------|
||----------------------------------------------|
|
||----------------------------------------------|
||o---------------------------------------------|
||----------------------------------------------|
||----------------------------------------------|
||o-(5)-----------------------------------------|
||----------------------------------------------|


1.,2.,3.,4.
(Dm7) (G/D)
5x
|-----------5--------------------3-----------||
|--------6-----6-----6--------3-----3-----3-o||
|-----5-----------5--------4-----------4-----||
|--0--------------------0--------------------||
|-------------------------------------------o||
|--------------------------------------------||
|
| 5x
|----------17-------------------15-----------||
|-------18----18----18----12-15----15-12-15-o||
|----17----------17--------------------------||
|----------------------12--------------------||
|-17----------------------------------------o||
|--------------------------------------------||


5.
(Dm7) (Csus2/D)
|-----------5--------------------7----------|
|--------6-----6-----6--------8-----8-----8-|
|-----5-----------5--------7-----------7----|
|--0--------------------0-------------------|
|-------------------------------------------|
|-------------------------------------------|
|
|----------17-------------------19----------|
|-------18----18----18-------20----20----20-|
|----17----------17-------19----------19----|
|-------------------------------------------|
|-17-------------------17-------------------|
|-------------------------------------------|


Bb/D C/E
|-10--10-(10)-10-10-10-(10)-10-10-10-|-12--------|-(12)----||
|-11--11-(11)-11-11-11-(11)-11-11-11-|-13--------|-(13)----||
|-10--10-(10)-10-10-10-(10)-10-10-10-|-12--------|-(12)----||
|-12--12-(12)-12-12-12-(12)-12-12-12-|-14--------|-(14)----||
|------------------------------------|-----------|---------||
|------------------------------------|-----------|---------||


Bridge
Faster Q=95
C5D5 C5 D5 Bb5 C5
Gtrs V, VI
~
||-------------------------|-------------------------||
||o------------------------|------------------------o||
||--5s7-7-7-7---5--5--7--x-|-3-3-3-3-3---3--3--5--x--||
||--5s7-7-7-7---5--5--7--x-|-3-3-3-3-3---3--3--5--x--||
||o-3s5-5-5-5---3--3--5--x-|-1-1-1-1-1---1--1--3--x-o||
||-------------------------|-------------------------||


Guitar Solo
D5 C5 D5 C5
Gtr V
|-------------------------------------------------------|
|-------------------------------------------------------|
|-14b17====(14)r=====(14)---10----12-10b11==(10)r-------|
|------------------------------12-----------------12-10-|
|-------------------------------------------------------|
|-------------------------------------------------------|
|
| Gtr VI
| ~
|-------------------------------------------------------|
|-------------------------------------------------------|
|--7-----7---7--7-7-------5-----5-----7---------------5-|
|--7-----7---7--7-7-------5-----5-----7---------------5-|
|--5-----5---5--5-5-------3-----3-----5---------------3-|
|-------------------------------------------------------|


Bb5 C5 D5 C5 D5 C5
~~~~~~~~
|----------------------------------------|---------------------------------------|
|----------------------------------------|---------------------------------------|
|----------------------------------------|-9-------(9)--(9)---10-12-9h10p9-------|
|-12-------------------------------------|---------------------------------12-10-|
|----------11s10p==8---------------------|---------------------------------------|
|--------------------10-8-10\------------|---------------------------------------|
|
| ~~~
|----------------------------------------|---------------------------------------|
|----------------------------------------|---------------------------------------|
|--3-3-3-3--3----3----3-3-----3--3--5--x-|-7-7-7-7--7-------5-----5----7-------5-|
|--3-3-3-3--3----3----3-3-----3--3--5--x-|-7-7-7-7--7-------5-----5----7-------5-|
|--1-1-1-1--1----1----1-1-----1--1--3--x-|-5-5-5-5--5-------3-----3----5-------3-|
|----------------------------------------|---------------------------------------|


slow a bit Q=92
Bb5 C5
|---------------------------------|
|---------------------------------|
|---------------------------------|
|-8----------(8)---7-8-7h8p7------|
|----------------------------10-8-|
|---------------------------------|
|
|---------------------------------|
|---------------------------------|
|-3-3-3-3-3------3---3-----5----x-|
|-3-3-3-3-3------3---3-----5----x-|
|-1-1-1-1-1------1---1-----3----x-|
|---------------------------------|


G5
\1____/
~~~~~~~~
|--------------------------------------------------------|
|--------------------------------------------------------|
|---------------------------------------------10h12b14===|
|--------------------------------8-10-(10)s12------------|
|-10---(10)-(10)-(10)-(10)\-/10--------------------------|
|--------------------------------------------------------|
|
|--------------------------------------------------------|
|--------------------------------------------------------|
|--------------------------------------------------------|
|--5--------------------5----(5)------------5------------|
|--5--------------------5----(5)------------5------------|
|--3--------------------3----(3)------------3------------|


A5
~~~~
|--------------------------------------------------------|
|--------------13---------------13--------------13-------|
|-(12)---(12)r-----12b14==(12)r----12b14==(12)r----12b14r|
|--------------------------------------------------------|
|--------------------------------------------------------|
|--------------------------------------------------------|
|
|--------------------------------------------------------|
|--------------------------------------------------------|
|---2------2---(2)------------------2--------------------|
|---2------2---(2)------------------2--------------------|
|---0------0---(0)------------------0--------------------|
|--------------------------------------------------------|


D5 C5 D5 C5
|---------------------------13------------------------------------|
|------13-------13-------13----13----(13)-------------------------|
|-(12)----10h12----10h12-12----12b14r(12)---10----12-10b11==(10)r-|
|----------------------------------------------12-----------------|
|-----------------------------------------------------------------|
|-----------------------------------------------------------------|
|
| ~~
|-----------------------------------------------------------------|
|-----------------------------------------------------------------|
|---7---7--7--7--7--------------5---------5-----7-----5-----------|
|---7---7--7--7--7--------------5---------5-----7-----5-----------|
|---5---5--5--5--5--------------3---------3-----5-----3-----------|
|-----------------------------------------------------------------|


Bb5 C5
|--------------------------------------------------|
|--------------------------------------------------|
|--------------------------------------------------|
|-12---10------------------------------------------|
|---------12s10-8----------------------------------|
|-----------------10s8-10b13r==(10)p8-10-(10)s3/---|
|
|--------------------------------------------------|
|--------------------------------------------------|
|--3-3--3--3--3-3--3-3-------3------3------5-----x-|
|--3-3--3--3--3-3--3-3-------3------3------5-----x-|
|--1-1--1--1--1-1--1-1-------1------1------3-----x-|
|--------------------------------------------------|


D5 C5 D5 C5
PM----------------------------------------------|
|--------------------------------------------------------------------------------10-|
|------------------------------------------------------------------------10---------|
|--------------------------------------------------10------10-12-10---12----12------|
|------------------------------10----10-12-10---12----12----------------------------|
|------------8------8-12-10-12----12------------------------------------------------|
|-/10-8---10---10-------------------------------------------------------------------|
|
| ~~
|-----------------------------------------------------------------------------------|
|-----------------------------------------------------------------------------------|
|---7---7----7----7----7----------------------5----------5----------7----------5----|
|---7---7----7----7----7----------------------5----------5----------7----------5----|
|---5---5----5----5----5----------------------3----------3----------5----------3----|
|-----------------------------------------------------------------------------------|


Bb5 C5
|--------------------13b15==(13)r-13b15==(13)r---13--12---10------------|
|-13b15==(13)r-13-10-------------------------------------------13--10---|
|-----------------------------------------------------------------------|
|-----------------------------------------------------------------------|
|-----------------------------------------------------------------------|
|-----------------------------------------------------------------------|
|
|-----------------------------------------------------------------------|
|-----------------------------------------------------------------------|
|--3-------3----3--3--3------------------------3--------3----5--------x-|
|--3-------3----3--3--3------------------------3--------3----5--------x-|
|--1-------1----1--1--1------------------------1--------1----3--------x-|
|-----------------------------------------------------------------------|


G5
~~~~~~~
|-----------------------------------|
|-11--(11)-10-11-10h=11p10----------|
|--------------------------12-(12)--|
|-----------------------------------|
|-----------------------------------|
|-----------------------------------|
|
|-----------------------------------|
|-----------------------------------|
|-----------------------------------|
|--5--------5----(5)------------5---|
|--5--------5----(5)------------5---|
|--3--------3----(3)------------3---|


A5
|-------------------------------------|
|-------------------------------------|
|-9-10-12-10-9------------------------|
|----------------12-11---(11)-(11)s14-|
|-------------------------------------|
|-------------------------------------|
|
|-------------------------------------|
|-------------------------------------|
|-2------------2----(2)----2----------|
|-2------------2----(2)----2----------|
|-0------------0----(0)----0----------|
|-------------------------------------|


accel Q=93
D5 C5 D5 C5
|-13p10----13p10----13p10----13p10----13p10----13p=|
|-------10-------10-------10-------10-------10-----|
|--------------------------------------------------|
|--------------------------------------------------|
|--------------------------------------------------|
|--------------------------------------------------|
|
| ~~
|--------------------------------------------------|
|--------------------------------------------------|
|--7--7--7--7--7--------------5-----5-----7-----5--|
|--7--7--7--7--7--------------5-----5-----7-----5--|
|--5--5--5--5--5--------------3-----3-----5-----3--|
|--------------------------------------------------|


Bb5 C5
|-10----13p10----13p10----13p10----13p10----13s17-|
|----10-------10-------10-------10-------10-------|
|-------------------------------------------------|
|-------------------------------------------------|
|-------------------------------------------------|
|-------------------------------------------------|
|
|-------------------------------------------------|
|-------------------------------------------------|
|--3--3--3--3--3--3--3--3-----3-----3-----5-----x-|
|--3--3--3--3--3--3--3--3-----3-----3-----5-----x-|
|--1--1--1--1--1--1--1--1-----1-----1-----3-----x-|
|-------------------------------------------------|


D5 C5 D5 C5
|-17p13----17p13----17p13----17p13----17p13----17-|
|-------15-------15-------15-------15-------15----|
|-------------------------------------------------|
|-------------------------------------------------|
|-------------------------------------------------|
|-------------------------------------------------|
|
| ~~
|-------------------------------------------------|
|-------------------------------------------------|
|--7--7--7--7--7--------------5-----5-----7-----5-|
|--7--7--7--7--7--------------5-----5-----7-----5-|
|--5--5--5--5--5--------------3-----3-----5-----3-|
|-------------------------------------------------|


Bb5 C5
|-20p17------20p17------20p17----20p17----20b22====(20)r---20b22==(20)r---20--17---|
|---------18---------18-------18-------18------------------------------------------|
|----------------------------------------------------------------------------------|
|----------------------------------------------------------------------------------|
|----------------------------------------------------------------------------------|
|----------------------------------------------------------------------------------|
|
|----------------------------------------------------------------------------------|
|----------------------------------------------------------------------------------|
|--3----3-----3----3-----3-----------------------3-------3--------------5--------x-|
|--3----3-----3----3-----3-----------------------3-------3--------------5--------x-|
|--1----1-----1----1-----1-----------------------1-------1--------------3--------x-|
|----------------------------------------------------------------------------------|


G5
~~~~~~~~ ~~~~~~~
|-18--(18)-17-18-17h=18p17------------|
|--------------------------20-(20)----|
|-------------------------------------|
|-------------------------------------|
|-------------------------------------|
|-------------------------------------|
|
|-------------------------------------|
|-------------------------------------|
|-------------------------------------|
|--5--------5----(5)------------5-----|
|--5--------5----(5)------------5-----|
|--3--------3----(3)------------3-----|


A5
~~~~~~~~
|-12-13-15-13-12-----------------------------|
|------------------15-14--(14)-(14)s20-(20)\-|
|--------------------------------------------|
|--------------------------------------------|
|--------------------------------------------|
|--------------------------------------------|
|
|--------------------------------------------|
|--------------------------------------------|
|--2-------------2----(2)------------2-------|
|--2-------------2----(2)------------2-------|
|--0-------------0----(0)------------0-------|
|--------------------------------------------|


Dm C5 G/B G5
2/4
|-10-10-10-10-12-10--8-8-8-10-8--|------------------|
|-10-10-10-10-10-10--8-8-8--8-8--|-8-(8)S3-----(3)/-|
|--------------------------------|------------------|
|--------------------------------|------------------|
|--------------------------------|------------------|
|--------------------------------|------------------|
|
|--1--1--1--1--1--1--------------|------------------|
|--3--3--3--3--3--3--------------|-3-----3-(3)------|
|--2--2--2--2--2--2--5-5-5--5-5--|-0-----0-(0)------|
|--0--0--0--0--0--0--5-5-5--5-5--|-0-----0-(0)------|
|--------------------3-3-3--3-3--|-2----------------|
|--------------------------------|-------3-(3)------|


Bb5 C5 D5 E5 F5 G5
4/4
|-6-----8-----10-------12-------13-----(13)--15-----(15)--|
|---6-----8------11-------13----16b18==(16)r-18b20==(18)r-|
|-----7-----9-------10-------12---------------------------|
|---------------------------------------------------------|
|---------------------------------------------------------|
|---------------------------------------------------------|
|
|---------------------------------------------------------|
|---------------------------------------------------------|
|-3-----5------7--------9-------10-----------12-----------|
|-3-----5------7--------9-------10-----------12-----------|
|-1-----3------5--------7--------8-----------10-----------|
|---------------------------------------------------------|


3rd Verse
Q=92
D5 C5
||--17-----(17)--------------------|
||o-20b22==(20)r-------------------|
||---------------------------------|
||---7-----------7--7--x-5-5--5--x-|
||o--5-----------5--5--x-3-3--3--x-|
||---------------------------------|
|
||---1-----------1--1--------------|
||o--3-----------3--3--x-5-5--5----|
||---2-----------2--2--x-5-5--5--x-|
||---0-----------0--0--x-5-5--5--x-|
||o----------------------3-3--3--x-|
||---------------------------------|


G/B G5N.C. D5 C5 G5
Gtrs V, VI
|--------------------------|-1-1--1--------------|-------||
|-3-3-3--3-3---------------|-3-3--3----5-5--5----|------o||
|-0-0-0--0-0---------------|-2-2--2--x-5-5--5--x-|-------||
|-0-0-0--0-0-------3-2-0---|-0-0--0--x-5-5--5--x-|-5-----||
|-2-2-2--2---0-2-3-------3-|---------x-3-3--3--x-|-5----o||
|----------3---------------|---------------------|-3-----||


Pre-Chorus III
D.S. al Coda
Gtr II
|----------/13--|-12------/13--|
|-\15-----------|--------------|
|---------------|--------------|
|---------------|--------------|
|---------------|--------------|
|---------------|--------------|
|
| Gtrs III, IV
|---8-----------|-10-----------|
|---6-----------|--8-----------|
|---7-----------|--9-----------|
|---8-----------|-10-----------|
|---------------|--------------|
|---------------|--------------|


Q=90
&
D5 A5Bb5 C5 G5 F5 D5 Bb5
Gtrs V, VI
|-------------------------|------------------|-------------------------|
|-------------------------|------------------|-------------------------|
|-7-7-x-x-x-x-3-3-x-x-x-x-|-5-5-x-x----------|-7-7-x-x-x-x-3-3-x-x-x-x-|
|-7-7-x-x-x-x-3-3-x-x-x-x-|-5-5-x-x-5\-5--3--|-7-7-x-x-x-x-3-3-x-x-x-x-|
|-5-5-x-x-x-x-1-1-x-x-x-x-|-3-3-x-x----5--3--|-5-5-x-x-x-x-1-1-x-x-x-x-|
|-------------------------|------------3--1--|-------------------------|


C5 Bb5C5 D5 A5Bb5 C5 G5 F5
|------------------|-------------------------|-------------------|
|------------------|-------------------------|-------------------|
|-5-5-x-x----3--5--|-7-7-x-x-x-2-3-3-x-x-x-x-|-5-5-x-x-x-x-------|
|-5-5-x-x-5\-3--5--|-7-7-x-x-x-2-3-3-x-x-x-x-|-5-5-x-x-x-x-5--3--|
|-3-3-x-x----1--3--|-5-5-x-x-x-0-1-1-x-x-x-x-|-3-3-x-x-x-x-5--3--|
|------------------|-------------------------|-------------3--1--|


D5 Bb5 C5 G5 F5 D5 A5Bb5
|-------------------------|----------------------|-------------------------|
|-------------------------|----------------------|-------------------------|
|-7-7-x-x-x-x-3-3-x-x-x-x-|-5-5-x-x--------------|-7-7-x-x-x-2-3-3-x-x-x-x-|
|-7-7-x-x-x-x-3-3-x-x-x-x-|-5-5-x-x-5\-5-(5)-3-3-|-7-7-x-x-x-2-3-3-x-x-x-x-|
|-5-5-x-x-x-x-1-1-x-x-x-x-|-3-3-x-x----5-(5)-3-3-|-5-5-x-x-x-0-1-1-x-x-x-x-|
|-------------------------|------------------1-1-|-------------------------|


Q=92
C5 G5 F5 D5 A5Bb5 C5 Bb5
|------------------|-------------------------|-------------------||
|------------------|-------------------------|-------------------||
|-5-5-x-x----------|-7-7-x-x-x-2-3-3-x-x-x-x-|-5-5-x-x----3--5---||
|-5-5-x-x-5\-5--3--|-7-7-x-x-x-2-3-3-x-x-x-x-|-5-5-x-x-5\-3--5---||
|-3-3-x-x----5--3--|-5-5-x-x-x-0-1-1-x-x-x-x-|-3-3-x-x----1--3---||
|------------3--1--|-------------------------|-------------------||


Outro-Solo
Dm/F C/E
Gtr V
|--------------------------------------|
|--------------------------------------|
|--------------------------------------|
|--------------------------------------|
|--------------------------------------|
|-10-----------------8------------8-10-|
|
| Gtr III
|-10-10-10-10-10-10----8-8-8--8-8-x--x-|
|-10-10-10-10-10-10----8-8-8--8-8-x--x-|
|-10-10-10-10-12-10----9-9-9-10-9-x--x-|
|--------------------------------------|
|--------------------------------------|
|--------------------------------------|


Bbsus4/G Bb/F
|----------------------------------------------------|
|----------------------------------------------------|
|----------------------------------------------------|
|----------------------------------------------------|
|----------------------------------------------------|
|-11----------------(11)-(11)\-6----------------6-8--|
|
|-11-11-11-11-11-11---x----x-----10-10-10-10-10-x-x--|
|-11-11-11-11-11-11---x----x-----11-11-11-11-11-x-x--|
|-12-12-12-12-12-12---x----x-----10-10-10-12-10-x-x--|
|----------------------------------------------------|
|----------------------------------------------------|
|----------------------------------------------------|


Q=93
Fm+5 Cm+5 Gm/Bb C/E
|-----------------------------------------|-----------------------------||
|-----------------------------------------|-----------------------------||
|-----------------------------------------|-----------------------------||
|-----------------------------------------|-----------------------------||
|-----------------------------------------|-------------5---------------||
|--9----------------(9)-(9)\-4------------|-3-----6--------8-----10-/12-||
|
|--9--9--9--9-11--9--x---x-----4-4-4-6-4--|-3-x-x-3-x-x-3--8-x-x--8---8-||
|--9--9--9--9--9--9--x---x-----4-4-4-4-4--|-3-x-x-3-x-x-3--8-x-x--8---8-||
|-10-10-10-10-10-10--x---x-----5-5-5-5-5--|-3-x-x-3-x-x-3--9-x-x--9---9-||
|-----------------------------------------|-----------------------------||
|-----------------------------------------|-----------------------------||
|-----------------------------------------|-----------------------------||


Dm/F C/E
Gtr VI
||--13----------13b15==(13)r=(13)-12------------------10-|
||o----------------------------------13-----(13)---13----|
||-------------------------------------------------------|
||-------------------------------------------------------|
||o------------------------------------------------------|
||-------------------------------------------------------|
|
| Gtr V
||-------------------------------------------------------|
||o------------------------------------------------------|
||-------------------------------------------------------|
||-------------------------------------------------------|
||o------------------------------------------------------|
||--10-----------------------------8----------------8-10-|
|
| Gtr III
||--10-10-10-10-10------10------------8-8-8---8--8--x--x-|
||o-10-10-10-10-10------10------------8-8-8---8--8--x--x-|
||--10-10-10-10-12------10------------9-9-9--10--9--x--x-|
||-------------------------------------------------------|
||o------------------------------------------------------|
||-------------------------------------------------------|


Bbsus4/G Bb/F
|-11-------11b13==(11)r-----11---13p==11p10---------------------8-|
|-------------------------------------------11-------(11)----11---|
|-----------------------------------------------------------------|
|-----------------------------------------------------------------|
|-----------------------------------------------------------------|
|-----------------------------------------------------------------|
|
|-----------------------------------------------------------------|
|-----------------------------------------------------------------|
|-----------------------------------------------------------------|
|-----------------------------------------------------------------|
|-----------------------------------------------------------------|
|-11-----------------------(11)-(11)\-----6-------------------6-8-|
|
|-11-11-11-11------11---11---x----x---------10-10-10--10--10--x-x-|
|-11-11-11-11------11---11---x----x---------11-11-11--11--11--x-x-|
|-12-12-12-12------12---12---x----x---------10-10-10--12--10--x-x-|
|-----------------------------------------------------------------|
|-----------------------------------------------------------------|
|-----------------------------------------------------------------|


Fm+5 Cm+5
|--9-------/11-(11)-----9--11p==9p8-----------8-|
|-----------------------------------9-----9-----|
|-----------------------------------------------|
|-----------------------------------------------|
|-----------------------------------------------|
|-----------------------------------------------|
|
|-----------------------------------------------|
|-----------------------------------------------|
|-----------------------------------------------|
|-----------------------------------------------|
|-----------------------------------------------|
|--9-------------------(9)-(9)\---4-------------|
|
|--9--9--9---9--11---9--x---x-------4-4-4-6-4---|
|--9--9--9---9---9---9--x---x-------4-4-4-4-4---|
|-10-10-10--10--10--10--x---x-------5-5-5-5-5---|
|-----------------------------------------------|
|-----------------------------------------------|
|-----------------------------------------------|


Gm/Bb C/E
3x
|--------10-----13--12-10-------------------------||
|-11----------------------13-11-10h11p10---------o||
|-----------------------------------------12-10---||
|-------------------------------------------------||
|------------------------------------------------o||
|-------------------------------------------------||
|
| 3x
|-------------------------------------------------||
|------------------------------------------------o||
|-------------------------------------------------||
|-------------------------------------------------||
|----------------5-------------------------------o||
|--3------6----------8-------10----------/12------||
|
| 3x
|--3-x-x--3-x-x--3---8--x--x--8------------8------||
|--3-x-x--3-x-x--3---8--x--x--8------------8-----o||
|--3-x-x--3-x-x--3---9--x--x--9------------9------||
|-------------------------------------------------||
|------------------------------------------------o||
|-------------------------------------------------||


Like us on Facebook.....
-> Loading Time :0.0273 sec