Unclean Spirits Tabs & Lyrics by King Diamond

Unclean Spirits

guitar tabs lyrics

King Diamond

Album : Voodoo heavy metal PlayStop


King Diamond: Unclean Spirits

transcribed by: Russ Elton : webmaster@abysslord.com

FIND EVERY MERCYFUL FATE/KING DIAMOND SONG AND
THE MOST UPDATED VERSION OF THIS SONG AT:

The Tab Crypt
http://abysslord.com/thetabcrypt/

Date last modified: December 07, 2003

PLEASE DO NOT COPY THIS TAB TO ANOTHER SITE
WITHOUT AUTHORS' PERMISSION. THANK YOU.

Tuning: Standard


Rhythm throughout most of the song
(Clean)
e|---------0---------------0-------|
B|-------1---1-----------1---1-----|
G|-----2-------2-------2-------2---|
D|---2-----------2---2-----------2-|
A|-0---------------0---------------|
E|---------------------------------|

e|---------0---------------0-------|
B|-------3---3-----------3---3-----|
G|-----1-------1-------1-------1---|
D|---0-----------0---0-----------0-|
A|-2---------------2---------------|
E|---------------------------------|


After awhile, this comes in (arranged for guitar)
e|----------------|
B|----------------|
G|-2~----4--5--1--|
D|----------------|
A|----------------|
E|----------------|

At 1:17, it changes to this
e|--------------------|
B|--------------------|
G|-2~----4--5--4------|
D|------------------4-|
A|--------------------|
E|--------------------|

e|----------------|
B|----------------|
G|-2~----4--5--4--|
D|----------------|
A|----------------|
E|----------------|


Ending rhythm:

At the 1:29 mark, it changes to this:
(Clean)
e|-------------------------|
B|---------0-------0-------|
G|---0---0---0---0---0---0-|
D|-----4-------4-------4---|
A|-7-----------------------|
E|-------------------------|

Strum:
e|-----0-|
B|----0--|
G|---0---|
D|--4----|
A|-7-----|
E|-------|




notation:
^ = bend [ ^ = half, ^^ = whole, etc. ]
^r = bend and release
x = mute with fret-hand
* = mute with palm-hand
X\\ = pick slide
h = hammer-on
p = pull-off
~ = vibrato
t = tap-on
/ = slide up
\ = slide down
h. = harmonics
ah = artificial harmonic
(9) = ghost note
tm = trem picking
tr = trill

Like us on Facebook.....
-> Loading Time :0.0089 sec