Dusk of the Forgotten Darkness Tabs & Lyrics by Enthroned

Dusk of the Forgotten Darkness

guitar tabs lyrics

Enthroned

Album : Blackend: The Black Metal Compilation, Volume 3 black metal PlayStop


Enthroned - Dusk of the Forgotten Darkness

Riff 1
|-----------------------------|
|-----------------------------|
|-----------------------------|
|-2---5---------2---5-4---5-4-|x6
|-0---3-3---5-3-0---3-2---3-2-|
|-------1---3-1---------------|

Riff 1b (played last 3 times by gtr2)
|---------------------------------|
|---------------------------------|
|---------------------------------|
|-7---10----------7---10-9---10-9-|
|--------8---10-8-----------------|
|---------------------------------|

Riff 2 (gtr1 play riff 1 again)
w/trem. pick. of course!
|--------------------------------|
|--------------------------------|
|--------------------------------|
|---2-3-5---5-3-2----------------|
|-0-------0--------3-2-3---3-2-3-|
|-----------------1------1-------|

Riff 3
|------------------|
|------------------|
gtr|------------------|
1 |---9-10-9---5-4-5-|
|-7--------3-------|
|------------------|
| |
|------------------|
|------------------|
gtr|-9--------5-------|
2 |-9--------5-------|
|-7--------3-------|
|------------------|

play that 4 times then 8 times w/trem. pick.
play it again 8 times but only grt1`s part

Riff 4
|------------------------------------------------------------------------------|
|------------------------------------------------------------------------------|
|------------------------------------------------------------------------------|
|------------------7-----------------------------------------------------------|
|-7--7-9-10---9-10---10-9-10---9--7---10-9-10---10-9-10------12-10-12-----10-9-|
|---------------------------------------------8----------10------------7-------|

play riff 3 a couple of time again

Riff 5
|------------------------------------|
|------------------------------------|
|------------------------------------|
|-----9---7-9-10---------------------|
|-7--------------------8----7-8-10---|
|------------------6-----------------|

Ending with drum fills
|---------------------------------|-----|
|---------------------------------|-----|
|---------------------------------|-----|
|-9-------8-------9-------8-------|-2---|
|-7-------8-------7-------8-------|-2---|
|-0-------6-------0-------6-------|-0---|


Like us on Facebook.....
-> Loading Time :0.0072 sec