Elegy Tabs & Lyrics by Daryll-Ann

Elegy

guitar tabs lyrics

Daryll-Ann

Album : Weeps 90s PlayStop


intro Bm D Bm D: below tab twice

e-----2---------2----------2--------2--------|
B-----3---------3----------3--------3--------|
G-----4---------4----------2--------2--------|
D-----4---------4--------0--------0----------|
A--2--------0-2--------0--------0--------2---|
E--------2-----------2--------2--------0-----|

Bm D

All around the cradle, love
C D
Feel the burning red lights
C Bm
Fall my rain, the red wine
Em F#m
Underway to low, under knife for tone
Bm D
What a fool to favour
C D
Before I ever met you
C Bm
all the love caress you
Em F#m (**1)
Underway I was, it's so long ago
G Bb Bm
I'm not gonna wait for you no more

Bm D Bm D (as intro)

Bm D
More than love can never be
C D
Before my hand is aching
C Bm
Before my hands are shaking
Em F#m
And I know my call and I pray for all
Bm D
More than life can never
C D
Before my hands are moving
C Bm
Tryin' to love the neighbour
Em F#m (**1)
And I won't deny and I pray for more
G Bb D
And I don't know where you're coming from
Em F#m Bm
You fill my head, I'm only waitin' for the wall collapsing
A Em G D
And I smuther and I'm dreaming and no-one comes around
Em F#m Bm
You hurt my head, I'm only screaming in the night, a maybe
A Em
You take me as a "I get over"-love
G Bm
But no-one comes around

Bm D Bm D (As intro)

**1
e---------------------------------|
B---------------------------------|
G---------------------------------|
D---------------------------------|
A----0-2-4-2-0--------------------|
E--2------------------------------|

This recording makes you wonder why studio technicians try to keep the noise down!
bother me a bit.

Like us on Facebook.....
-> Loading Time :0.0238 sec