Conceived Through An Act of Violence Tabs & Lyrics by Hatebreed

Conceived Through An Act of Violence

guitar tabs lyrics

Hatebreed

Album : Satisfaction Is the Death of Desire hardcore PlayStop


HATEBREED RULES!!! Shai Hulud

"I am the hatred taken..."
1||-----------------||-----------------|-----------------||
2||-----------------||-----------------|-----------------||
3||-----------------||-----------------|-----------------||
4||-----------------||-----------------|-----------------||
5||-5-5-5-6---7-----||-2-2-2----2----2-|-2-2-2---2-2-2---||
6||-3-3-3-4---5-----||-0-0-0----0----0-|-0-0-0---0-0-0---||

"Forever..."
1||-----------------|-----------------|-----------------|-----------------||
2||-----------------|-----------------|-----------------|-----------------||
3||-----------------|-----------------|-----------------|-----------------||
4||-----------------|-----------------|-----------------|-----------------||
5||-5-5---5-2-2---2-|-5-5---5-2-2---2-|-7-7---7-8-7---5-|-6-6---6-6-6---6-||
6||-3-3---3-0-0---0-|-3-3---3-0-0---0-|-5-5---5-6-5---3-|-4-4---4-4-4---4-||

"Concieved..."
1||-----------------|-----------------||
2||-----------------|-----------------||
3||-----------------|-----------------||
4||-----------------|-----------------||
5||-7-7---7-8-7---5-|-6-6---6-6-6---6-||
6||-5-5---5-6-5---3-|-4-4---4-4-4---4-||

Like us on Facebook.....
-> Loading Time :0.0080 sec