In a Room Tabs & Lyrics by Millencolin

In a Room

guitar tabs lyrics

Millencolin

Album : The Melancholy Collection punk rock PlayStop


----------------------------------------------------------------------------
IN A ROOM - Millencolin
----------------------------------------------------------------------------

By Aidan Hitchcock

Intro:
guit1 x5 last time:
----------------------- -------------------
----------------------- -------------------

----------------------- ------------7-7-5-5
---2-----2-----4---5-4- ---2-----2--7-7-5-5
-0---0-3---5-5---5----- -0---0-3----5-5-3-3
----------------------- -------------------

guit2 riff (with&without mute)
-------------------------------
-------------------------------
--------9----------------------
-7777777-77777775x7x-----------
-------------------------------
-------------------------------

Intro (with guit2 riff) x3 then:
----------------------------- ---------------------------
----------------------------- ---------------------------
----------------------777777- ----------77-55------------
-777777-333333-555555-777777- -7--3--5--77-55--7-77-7-77-
-777777-333333-555555-555555- -7--3--5--55-33--7-77-7-77-
-555555-111111-333333-------- -5--1--3---------5-55-5-55-
guit2 plays here^^^^

"The sun is shining..."
---------------------------------------------------------
---------------------------------------------------------
---------------777555----------------------777555--------
-777777-333333-777555-777777-777777-333333-777555-777777-
-777777-333333-555333-777777-777777-333333-555333-777777-
-555555-111111--------555555-555555-111111--------555555-

"They smile, I smile..."
------------------------------------------------------------
------------------------------------------------------------
------------------------------------------------------------
-5-5-5-5-5-5-5-5-33333333-5-5-5-5-5-5-5-5-33333333-5555-5-6-
-5-5-5-5-5-5-5-5-33333333-5-5-5-5-5-5-5-5-33333333-5555-5-6-
-3-3-3-3-3-3-3-3-11111111-3-3-3-3-3-3-3-3-11111111-3333-3-4-
(offbeat) (offbeat)

"I am surfing in my room..." (chorus)
------------------------------------------------------------
------------------------------------------------------------
----------------------777777--------------------------------
-777777-333333-555555-777777--777777-333333---------7-5---5-
-777777-333333-555555-555555--777777-333333---5-3/5-----7---
-555555-111111-333333---------555555-111111-3---------------

with guit2 riff:
--------------------------------------------------------
--------------------------------------------------------
----------------------777777----------------------77-55-
-777777-333333-555555-777777-777777-333333-555555-77-55-
-777777-333333-555555-555555-777777-333333-555555-55-33-
-555555-111111-333333--------555555-111111-333333-------

"The wind is blowing..."
---------------------------------------------------------
---------------------------------------------------------
---------------777555----------------------777555--------
-777777-333333-777555-777777-777777-333333-777555-777777-
-777777-333333-555333-777777-777777-333333-555333-777777-
-555555-111111--------555555-555555-111111--------555555-

"Into Another perfect dream..."
----------------------------------
----------------------------------
-777555---------77777777-55555555-
-777555-777777--77777777-55555555-
-555333-777777--55555555-33333333-
--------555555--------------------

"A dream..."
------------------------------------
------------------------------------
--------555555----------------------
-777777-555555-555555-3-3--5-5--7-7-
-777777-333333-555555-3-3--5-5--7-7-
-555555--------333333-1-1--3-3--5-5-

"I am surfing in my room" (chorus)
-----------------------------------------------------------
-----------------------------------------------------------
------------------------777777----------------------777777-
-5/777777-333333-555555-777777-777777-333333-555555-777777-
-3/555555-111111-555555-555555-555555-111111-555555-555555-
-3/555555-111111-333333--------555555-111111-333333--------

"Surfing in my room, I feel like a star.."
------------------------------
------------------------------
------------------------------
-777\5---333/5---777\5---3--5-
-777\5---111/3---777\5---3--5-
-555\3---111/3---555\3---1--3-

"I am surfing in my room..." (chorus)
------------------------------------------------------------
------------------------------------------------------------
----------------------777777--------------------------------
-777777-333333-555555-777777--777777-333333---------7-5---5-
-777777-333333-555555-555555--777777-333333---5-3/5-----7---
-555555-111111-333333---------555555-111111-3---------------

with guit2 riff:
------------------------------------------
------------------------------------------
--------555555----------------------------
-777777-555555-555555--3-3--5-5--7-7--5-7-
-777777-333333-555555--3-3--5-5--7-7--5-7-
-555555--------333333--1-1--3-3--5-5--3-5-

/ = slide up
\ = slide down

=====================================================================

Like us on Facebook.....
-> Loading Time :0.0138 sec