Aisle 13 Chords & Lyrics by Built to Spill

Aisle 13

guitar chords lyrics

Built to Spill

Album : There Is No Enemy 2009 PlayStop


AISLE 13
--------

G
E---------------------------------------|
B---------------------------------------|
G---------------------------------------|
D---------------------------------------|
A----2------5---2-------2-------5---2---|
E-3-----3-----------3-------3-----------|


G E 3x
G [E C D]
G [E C D] 4x

E C D Riff:

E C D
E---------------------------------------------------|
B-0-0-0-0-0-0-0-0---------3-------------------------|
G-0-0-0-0-0-0-0-0-0---0---2-------------------------|
D-2-2-2-2-2-2-2-2-2---2---0-------------------------|
A-2-0-0-2-0-0-2-0-3---3---0-------------------------|
E-0-0-0-0-0-0-0-0-3---3-----------------------------|

G [E
know what
C D]
good you've done
seems like
on just a whim
no one
can be on
all sides
at once

C G Em
E------------------------------------------------------------|
B------------------------------------------------------------|
G-5-5-5-5-5-5-5----------------------------------------------|
D-5-4-4-5-4-4-5---5-5-5-5-5-5-5---2-2-2-2-2-2-2-2-2---2---2--|
A-3-3-3-3-3-3-3---5-4-4-5-4-4-5---2-0-0-2-0-0-2-0-2---2---2--|
E-----------------3-3-3-3-3-3-3---0-0-0-0-0-0-0-0-0---0---0--|

C G E C D
E------------------------------------------------------------|
B---------------------------------------------------------3--|
G-5-5-5-5-5-5-5-------------------------------------------2--|
D-5-4-4-5-4-4-5---5-5-5-5-5-5-5---2-2-2-2-2-2-2-2-2---2---0--|
A-3-3-3-3-3-3-3---5-4-4-5-4-4-5---2-0-0-2-0-0-2-0-3---3---0--|
E-----------------3-3-3-3-3-3-3---0-0-0-0-0-0-0-0-3---3------|

every day
something strange
I can't explain
happens to me
often I
am called by name
to clean up
aisle 13

C G E [Instrumental part 3x first half]
no one knows cuz no one wants to
know what they might find
no one sees cuz no one wants to
C G E C D [Instrumental part second half]
see what's in their mind

G E 3x
G [E C D]

don't be all
so all afraid
everyone
has weird dreams
one day I'll
come home to find you
covered with ants
cuz you're so sweet

no one knows cuz no one wants to
know what they might find
no one sees cuz no one wants to
see what's in their mind

G~

More tracks of "Built to Spill"

Like us on Facebook.....
-> Loading Time :0.0083 sec