Altered State Tabs & Lyrics by Sepultura

Altered State

guitar tabs lyrics

Sepultura

Album : Arise thrash metal PlayStop



ALTERED STATE
As recorded by Sepultura
(From the 1991 Album ARISE)

Transcribed by Jeff Jacobson, Paul Pappas, and Steve Gorenberg


Words by Max Cavalera and Andreas Kisser Music by Sepultura

E5
0 2 x x x x

G#5
4 6 x x x x

G5
3 5 x x x x

F#5
2 4 x x x x

F5
1 3 x x x x

C5
x 3 5 x x x

B5
x 2 4 x x x

A5
5 7 x x x x

C5VIII
8 10 x x x x

Bb5
x 1 3 x x x

Bb5VI
6 8 x x x x

E5VII
0 7 9 x x x

F5(type 2)
1 3 3 x x x

Gtr I (E A D G B E) - 'Untitled'
Gtr II (E A D G B E) - 'Untitled'
Gtr III (E A D G B E) - 'Untitled'
Gtr IV (E A D G B E) - 'Untitled'
Gtr V (E A D G B E) - 'Untitled'
Gtr VI (E A D G B E) - 'Untitled'

Intro
Moderate Rock Q=152
E5
4/4
Gtr III
\7
Wx2 W +H +H
|------------||------------------|--------------------|
|------------||------------------|--------------------|
|------------||------------------|--------------------|
|------------||------------------|--------------------|
|------------||------------------|--------------------|
|------------||-0----------------|-(0)-------(0)------|
|
| Gtrs I, II
| PM-------------------------------------
| |-3--|
| Wx2 E E E E E E E E E E E E Q Q Q
|------------||------------------|--------------------|
|------------||------------------|--------------------|
|------------||------------------|--------------------|
|------------||------------------|--------------------|
|------------||-2--2-2-2-2-2-2-2-|--2--2-2-2--2--2-2--|
|------------||-0--0-0-0-0-0-0-0-|--0--0-0-0--0--0-0--|


Q Q Q Q Q Q Q +Q
|-13-------13-------|-13-------13---(13)\----|
|-17-------17-------|-17-------17------------|
|-------------------|------------------------|
|-------------------|------------------------|
|-------------------|------------------------|
|-------------------|------------------------|
|
|-----------------------------------------|
| |----3----|
| E E E E E E E E E E E E Q Q Q
|-------------------|------------------------|
|-------------------|------------------------|
|-------------------|------------------------|
|-------------------|------------------------|
|--2-2-2-2--2-2-2-2-|--2-2-2-2--2-2-------2--|
|--0-0-0-0--0-0-0-0-|--0-0-0-0--0-0-------0--|


\3.5_______________/2___\4.5_______/3.5_____\6 |
|-3-|
H +Q a +Q +Q +Q +Q. S S S
|---------------------------------|------------------------------|
|---------------------------------|----------------------------x-|
|---------------------------------|--------------------------x---|
|---------------------------------|------------------------x-----|
|---------------------------------|------------------------------|
|-0-----------(0)---(0)--(0)------|-(0)------(0)---(0)-----------|
|
| PM--------------------------------------------------------------
| |-3--|
| E E E E E E E E E E E E Q Q Q
|---------------------------------|------------------------------|
|---------------------------------|------------------------------|
|---------------------------------|------------------------------|
|---------------------------------|------------------------------|
|-2-----2-2-2--2--2-------2-----2-|--2-----2--2--2--2--2-2-------|
|-0-----0-0-0--0--0-------0-----0-|--0-----0--0--0--0--0-0-------|


|-3-| |-3-| |-3-|
Q. S S S Q. S S S Q. S S S H
|-18------------18------------|-18------------18------|
|-------------x-------------x-|-------------x---------|
|-----------x-------------x---|-----------x-----------|
|---------x-------------x-----|---------x-------------|
|-----------------------------|-----------------------|
|-----------------------------|-----------------------|
|
|--------------------------------------------------|
| |-3-|
| E E E E E E E E E E E E Q Q Q
|-----------------------------|-----------------------|
|-----------------------------|-----------------------|
|-----------------------------|-----------------------|
|-----------------------------|-----------------------|
|--2--2-2-2------2--2-2-2-----|--2--2-2-2------2-2-2--|
|--0--0-0-0------0--0-0-0-----|--0--0-0-0------0-0-0--|


Gtrs I, II
PM---------------------------------------------
E E S S S S E E S S S S E E E E E E E E 6x
||--------------------------|------------------||-|
||o-------------------------|-----------------o||-|
||--------------------------|------------------||-|
||--------------------------|------------------||-|
||o-2-2-2-2-2-2-2-2-2-2-2-2-|-2-2-2-2-2-2-2-2-o||-|
||--0-0-0-0-0-0-0-0-0-0-0-0-|-0-0-0-0-0-0-0-0--||-|


G#G5F#G5F#5 F5
-----------------------------------------|
E E S S S S E E S S S S E E E E E E E E
||--------------------------|--------------------||
||o-------------------------|-------------------o||
||--------------------------|--------------------||
||--------------------------|--------------------||
||o-2-2-2-2-2-2-2-2-2-2-2-2-|-2-6-5-4-5-4---3---o||
||--0-0-0-0-0-0-0-0-0-0-0-0-|-0-4-3-2-3-2-0-1----||


F#5
Gtrs I, II
W +W
| |
/ /

Gtr III
W +Q. E E E Q
|------------|---------------------|
|------------|---------------------|
|-/11--------|-(11)---11-11s10-10s=|
|------------|---------------------|
|--/9--------|--(9)----9--9s=8--8s=|
|------------|---------------------|


W +W
| |
/ /

W +Q. a E Q. a E
|-----------|--------------------------------|
|-----------|--------------------------------|
|-14--------|-(14)---(14)s13-13----(13)s10---|
|-----------|--------------------------------|
|-12--------|-(12)---(12)s11-11----(11)s=8---|
|-----------|--------------------------------|


W +W W +W
| | | |
/ / / /

W +Q. a E Q. +E W +H E E Q
|-----------|---------------------------|----------|---------------||
|-----------|---------------------------|----------|---------------||
|-10--------|-(10)---(10)s11-11----(11)S|=6--------|-(6)----6s5-5--||
|-----------|---------------------------|----------|---------------||
|--8--------|--(8)----(8)s=9--9-----(9)S|=4--------|-(4)----4s3-3--||
|-----------|---------------------------|----------|---------------||


1st Verse
E5 G#G5F#G5F#5 F5
Gtrs I, II
PM------------------------------------|
E E S S S S E E S S S S E E E E E E E E
||--------------------------|-----------------|
||o-------------------------|-----------------|
||--------------------------|-----------------|
||--------------------------|-----------------|
||o-2-2-2-2-2-2-2-2-2-2-2-2-|-2-6-5-4-5-4---3-|
||--0-0-0-0-0-0-0-0-0-0-0-0-|-0-4-3-2-3-2-0-1-|


E5 G#G5F#G5F#5 F5
PM------------------------------------|
E E S S S S E E S S S S E E E E E E E E
|-------------------------|------------------||
|-------------------------|-----------------o||
|-------------------------|------------------||
|-------------------------|------------------||
|-2-2-2-2-2-2-2-2-2-2-2-2-|-2-6-5-4-5-4---3-o||
|-0-0-0-0-0-0-0-0-0-0-0-0-|-0-4-3-2-3-2-0-1--||


F#5
Gtrs I, II
W +W
| |
/ /

Gtr III
W +Q. E E E Q
|------------|---------------------|
|------------|---------------------|
|-/11--------|-(11)---11-11s10-10s=|
|------------|---------------------|
|--/9--------|--(9)----9--9s=8--8s=|
|------------|---------------------|


W +W
| |
/ /

W +Q. a E Q. a E
|-----------|--------------------------------|
|-----------|--------------------------------|
|-14--------|-(14)---(14)s13-13----(13)s10---|
|-----------|--------------------------------|
|-12--------|-(12)---(12)s11-11----(11)s=8---|
|-----------|--------------------------------|


W +W W +W
| | | |
/ / / /

W +Q. a E Q. +E W +H E E Q
|-----------|---------------------------|----------|---------------||
|-----------|---------------------------|----------|---------------||
|-10--------|-(10)---(10)s11-11----(11)S|=6--------|-(6)----6s5-5--||
|-----------|---------------------------|----------|---------------||
|--8--------|--(8)----(8)s=9--9-----(9)S|=4--------|-(4)----4s3-3--||
|-----------|---------------------------|----------|---------------||


C5 G5 N.C.
Gtrs I, II
PM--------| PM--------| PM----------------------------|
S S S S S S E S S S S S S E S S S S S S S S S S S S S S S S
||------------------------------|----------------------------------|
||o-----------------------------|----------------------------------|
||------------------------------|----------------------------------|
||--------------5---------------|----------------------------------|
||o-------------3-------------5-|----------------------------------|
||--2-2-2-2-2-2---2-2-2-2-2-2-3-|-1-1-1-1-1-1-1-1-1-1-1-1-1-1-1-1--|


1. 2.
C5 G5 N.C. F5 G#G5F#G5F#5 F5
PM--------| PM--------| PM------------| PM----------|
|-3-|
S S S S S S E S S S S S S E S S S S S S S S Q Q Q E E E E E E E E
|-----------------------------|------------------------||------------------||
|-----------------------------|-----------------------o||------------------||
|-----------------------------|------------------------||------------------||
|-------------5---------------|------------------------||------------------||
|-------------3-------------5-|-----------------3-3-3-o||----6-5-4-5-4---3-||
|-2-2-2-2-2-2---2-2-2-2-2-2-3-|-1-1-1-1-1-1-1-1-1-1-1--||--0-4-3-2-3-2-0-1-||


2nd Verse
E5 G#G5F#G5F#5 F5
Gtrs I, II
PM------------------------------------|
E E S S S S E E S S S S E E E E E E E E 3x
||--------------------------|------------------||
||o-------------------------|-----------------o||
||--------------------------|------------------||
||--------------------------|------------------||
||o-2-2-2-2-2-2-2-2-2-2-2-2-|-2-6-5-4-5-4---3-o||
||--0-0-0-0-0-0-0-0-0-0-0-0-|-0-4-3-2-3-2-0-1--||


E5 G#G5F#G5F#5 E5
PM------------------------------------|
E E S S S S E E S S S S E E E E E E E E
|-------------------------|-----------------|
|-------------------------|-----------------|
|-------------------------|-----------------|
|-------------------------|-----------------|
|-2-2-2-2-2-2-2-2-2-2-2-2-|-2-6-5-4-5-4---2-|
|-0-0-0-0-0-0-0-0-0-0-0-0-|-0-4-3-2-3-2-0-0-|


F5 B5 C5 N.C.
PM------------|
E Q E E Q E E Q E S S S S S S S S
||----------------|------------------------|
||o---------------|------------------------|
||----------------|------------------------|
||---------4-4--4-|-5-5--5-----------------|
||o-3-3--3-2-2--2-|-3-3--3-----------------|
||--1-1--1--------|--------2-2-2-2-2-2-2-2-|


F5 B5 C5 N.C.
PM------------|
E Q E E Q E E Q E S S S S S S S S
|---------------|-------------------------||
|---------------|------------------------o||
|---------------|-------------------------||
|--------4-4--4-|-5-5--5------------------||
|-3-3--3-2-2--2-|-3-3--3-----------------o||
|-1-1--1--------|--------2-2-2-2-2-2-2-2--||


F5N.C.
PM--------------------------------------------------------|
E S S S S S S S S S S S S S S S S S S S S S S S S S S S S S S 4x
||--------------------------------|----------------------------------||
||o-------------------------------|---------------------------------o||
||--------------------------------|----------------------------------||
||--------------------------------|----------------------------------||
||o-3-----------------------------|---------------------------------o||
||--1-1-1-1-1-1-1-1-1-1-1-1-1-1-1-|-1-1-1-1-1-1-1-1-2-2-2-2-2-2-2-2--||


Chorus
F5 B5 F5 F#5 E5
PM------| PM------| PM------------------------|
E S S S S S S E S S S S E E S S S S S S E S S S S S S 4x
||----------------------------|------------------------------||
||o---------------------------|-----------------------------o||
||----------------------------|------------------------------||
||------------4---------------|------------------------------||
||o-3-3-3-3-3-2p0-3-3-3-3-3-4-|-2-2-2-2-2-2-2-2-2-2-2-2-2-2-o||
||--1-1-1-1-1-----1-1-1-1-1-2-|-0-0-0-0-0-0-0-0-0-0-0-0-0-0--||


Bridge
Slower Q=108
A5 G#5 A5 G#5 A5 G#A5G#A5
Q +S E. Q +S E. Q +S E. E E E E
|------------------------|---------------------|
|------------------------|---------------------|
|------------------------|---------------------|
|------------------------|---------------------|
|-2--(2)-/7--6--(6)\-/7--|-6--(6)\-/7--6-7-6-7-|
|-0--(0)-/5--4--(4)\-/5--|-4--(4)\-/5--4-5-4-5-|


C5VIII A5G#5 A5 G#5 A5G#A5G#A5
PM| PM| PM|
Q S S E Q S S E Q S S E E E E E
|---------------------|-------------------|
|---------------------|-------------------|
|---------------------|-------------------|
|---------------------|-------------------|
|-/10------7-6------7-|-6------7-6-7-6-7--|
|--/8--0-0-5-4--0-0-5-|-4--0-0-5-4-5-4-5--|


E5 G#5 A5 G#5 A5 G#A5G#A5
PM| PM|
Q. E Q S S E Q S S E E E E E
|-------------------|-------------------|
|-------------------|-------------------|
|-------------------|-------------------|
|-------------------|-------------------|
|-2----/7-6------/7-|-6------/7-6-7-6-7-|
|-0----/5-4--0-0-/5-|-4--0-0-/5-4-5-4-5-|


C5VIII A5 G#5 A5 G#5 A5G#A5G#A5
PM| PM|
Q +E E Q S S E Q S S E E E E E
|-----------------------|------------------||
|-----------------------|------------------||
|-----------------------|------------------||
|-----------------------|------------------||
|-/10--(10)-\7-6------7-|-6------7-6-7-6-7-||
|--/8---(8)-\5-4--0-0-5-|-4--0-0-5-4-5-4-5-||


Faster Q=188
F5E5 F5E5 F5E5 F5E5 F5E5 F5
PM--------------------------------------------------------------|
E E E E E E E E E E E E E E E E E E E E E E E E E E E E E E Q
|-----------------|-----------------|-----------------|----------------||
|-----------------|-----------------|-----------------|----------------||
|-----------------|-----------------|-----------------|----------------||
|-----------------|-----------------|-----------------|----------------||
|-3-2-2-2-2-2-2-2-|-3-2-2-2-2-2-2-2-|-3-2-2-2-2-2-2-2-|-3-2-2-3-2-2-3--||
|-1-0-0-0-0-0-0-0-|-1-0-0-0-0-0-0-0-|-1-0-0-0-0-0-0-0-|-1-0-0-1-0-0-1--||


F5 E5 F5 E5
Gtrs I, II
E E E E E E E E E E E E E E E E
| | | | | | | | | | | | | | | |
/ / / / / / / / / / / / / / / /

Gtr III
W +W
|------------------|--------------------|
|------------------|--------------------|
|-11---------------|-(11)---------------|
|--9---------------|--(9)---------------|
|------------------|--------------------|
|------------------|--------------------|


F5 E5 F5 E5 F5 E5 F5
E E E E E E E E E E E E E E Q
| | | | | | | | | | | | | | |
/ / / / / / / / / / / / / / /

PM| PM| PM
W E E E E E E E E
|------------------|--------------------|
|------------------|--------------------|
|-10---------------|-10-----10-----10---|
|--9---------------|--9-9-9--9-9-9--9-9-|
|------------------|--------------------|
|------------------|--------------------|


F5 E5 F5 E5
E E E E E E E E E E E E E E E E
| | | | | | | | | | | | | | | |
/ / / / / / / / / / / / / / / /

~~~~~~~
W Q. E +Q Q
|------------------|------------------------|
|------------------|------------------------|
|-11---------------|-11------11-(11)---11---|
|--9---------------|--9-------9--(9)----9---|
|------------------|------------------------|
|------------------|------------------------|


F5 E5 F5 E5 F5 E5 F5
E E E E E E E E E E E E E E Q
| | | | | | | | | | | | | | |
/ / / / / / / / / / / / / / /

PM| PM| PM
W E E E E E E E E
|------------------|--------------------|
|------------------|--------------------|
|-10---------------|-10-----10-----10---|
|--9---------------|--9-9-9--9-9-9--9-9-|
|------------------|--------------------|
|------------------|--------------------|


F5 E5 F5E5
E E E E E E E E E E E E E E E E
| | | | | | | | | | | | | | | |
/ / / / / / / / / / / / / / / /

Gtr IV
PM| PM| PM--| PM| PM PM
E E E E E E E E E E E E E E E E
|--------------------|--------------------|
|--------------------|--------------------|
|-11-----10-----11---|---10-----11---10---|
|----9-9----9-9----9-|-9----9-9----9----9-|
|--------------------|--------------------|
|--------------------|--------------------|
|
| Gtr V
| PM| PM| PM--| PM| PM PM
| E E E E E E E E E E E E E E E E
|--------------------|--------------------|
|--------------------|--------------------|
|--9------8------9---|----8------9----8---|
|----7-7----7-7----7-|-7----7-7----7----7-|
|--------------------|--------------------|
|--------------------|--------------------|


F5 E5 F5E5 F5E5 F5
E E E E E E E E E E E E E E Q
| | | | | | | | | | | | | | |
/ / / / / / / / / / / / / / /

PM| PM| PM--| PM| PM PM
E E E E E E E E E E E E E E E E
|-------------------|------------------|
|-------------------|------------------|
|-10-----9-----10---|---9-----10---9---|
|----8-8---8-8----8-|-8---8-8----8---8-|
|-------------------|------------------|
|-------------------|------------------|
|
| PM| PM| PM--| PM| PM PM
| E E E E E E E E E E E E E E E E
|-------------------|------------------|
|-------------------|------------------|
|--8-----7------8---|---7------8---7---|
|----6-6---6-6----6-|-6---6-6----6---6-|
|-------------------|------------------|
|-------------------|------------------|


F5 E5 F5E5
Gtrs I, II
E E E E E E E E E E E E E E E E
| | | | | | | | | | | | | | | |
/ / / / / / / / / / / / / / / /

Gtr III
W H Q E E
|--------------------|--------------------|
|--------------------|--------------------|
|--------------------|--------------------|
|--------------------|--------------------|
|--------------------|------------------xs|
|--------------------|------------------xs|
|
| Gtr IV
| PM| PM| PM--| PM| PM PM
| E E E E E E E E E E E E E E E E
|--------------------|--------------------|
|--------------------|--------------------|
|-11-----10-----11---|---10-----11---10---|
|----9-9----9-9----9-|-9----9-9----9----9-|
|--------------------|--------------------|
|--------------------|--------------------|
|
| Gtr V
| PM| PM| PM--| PM| PM PM
| E E E E E E E E E E E E E E E E
|--------------------|--------------------|
|--------------------|--------------------|
|--9------8------9---|----8------9----8---|
|----7-7----7-7----7-|-7----7-7----7----7-|
|--------------------|--------------------|
|--------------------|--------------------|


F5 E5 F5 E5 F5 E5 F#5B5
E E E E E E E E E E E E E E E E
| | | | | | | | | | | | | | | |
/ / / / / / / / / / / / / / / /

W Q. E E E Q
|-------------------|----------------------||
|-------------------|----------------------||
|-------------------|----------------------||
|-------------------|----------------------||
|--xs===============|=x\-----[3]----x------||
|--xs===============|=x\--------------/7---||
|
| PM| PM| PM--| PM| PM PM
| E E E E E E E E E E E E E E E E
|-------------------|----------------------||
|-------------------|----------------------||
|-10-----9-----10---|----9-------10----9---||
|----8-8---8-8----8-|-8----8--8-----8----8-||
|-------------------|----------------------||
|-------------------|----------------------||
|
| PM| PM| PM--| PM| PM PM
| E E E E E E E E E E E E E E E E
|-------------------|----------------------||
|-------------------|----------------------||
|--8-----7------8---|----7--------8----7---||
|----6-6---6-6----6-|-6----6--6-----6----6-||
|-------------------|----------------------||
|-------------------|----------------------||


Guitar Solo
Bb5 E5 F#B5 Bb5 E5 F#B5
Gtr III
W +W
|--------------------|----------------------|
|--------------------|----------------------|
|--------------------|----------------------|
|--------------------|----------------------|
|-5tr7---------------|-(5tr7)---------------|
|--------------------|----------------------|
|
| Gtrs I, II
| PM| PM| PM| PM|
| E E E E E E E E E E E E E E E E
|--------------------|----------------------|
|--------------------|----------------------|
|--------------------|----------------------|
|-3----------------4-|--3-----------------4-|
|-1--------2-----4-2-|--1---------2-----4-2-|
|------0-0-0-0-0-2---|--------0-0-0-0-0-2---|


Bb5 F#5B5
a H +H +Q +E +S +S +E E Q
|--------------------------|-----------------------------------|
|--------------------------|-----------------------------------|
|--------------------------|-----------------------------------|
|--------------------------|-----------------------------------|
|-(5)-7-------(7)b8========|=(7)---(7)r(7)b8==(7)r(7)-0--------|
|--------------------------|----------------------------x/-----|
|
| PM--------------------------------------------|
| E E E E E E E E E E E E E E E E
|--------------------------|-----------------------------------|
|--------------------------|-----------------------------------|
|--------------------------|-----------------------------------|
|-----3--------------------|-------------------------------4---|
|-----1--------------------|----------------------------4--2---|
|-------0-0-0--0-----0-0-0-|--0--0--0---0----------0--0-2------|


Bb5 E5 F#5 B5
S S S S S S S S a E S S S E S
|------------------------------------------------|
|------------------------------------------------|
|---------------------------------------------12-|
|-------------------------------------12-14------|
|-------------------12p10-12s14-12h14------------|
|-12p10-12p10-12p10------------------------------|
|
| PM---| PM|
| E E E E E E E E
|------------------------------------------------|
|------------------------------------------------|
|------------------------------------------------|
|--3----------------------------------------4----|
|--1-----------------2-----------------4----2----|
|--------0-----0-----0--------0--0-----2---------|


Bb5 E5 F#5 B5
+S E. E. S S S S S S S S S
|-----------------------------12----------------|
|--------------15-------12h15----15p12----------|
|-(12)-14b16---------14----------------14p12h14-|
|-----------------------------------------------|
|-----------------------------------------------|
|-----------------------------------------------|
|
| PM| PM---|
| E E E E E E E E
|-----------------------------------------------|
|-----------------------------------------------|
|-----------------------------------------------|
|---3--------------------------------------4----|
|---1--------------2-----------------4-----2----|
|------------0--0--0-----0-----0-----2----------|


Bb5
|--3--|
S S S S S S S S S S E S S S S S
|---------------------------------------------------|
|---------------------------------------------------|
|-12h14p12----------12h14p12------------------------|
|----------14-12h14----------14p12------------------|
|------------------------------------14-14s12p10h12-|
|---------------------------------------------------|
|
| PM------------------------------------------
| E E E E E E E E
|---------------------------------------------------|
|---------------------------------------------------|
|---------------------------------------------------|
|--3------------------------------------------------|
|--1------------------------------------------------|
|--------0-----0-----0--------0----0-----0-----0----|


F#5B5 Bb5 E5 F#B5
~~~~~~ ~~
+E E Q Q E E H +E Q E
|----------------------------|-------------------------|
|-------------------------15-|-17-------(17)\-------15-|
|----------------/14h==16----|----------------/16------|
|----------------------------|-------------------------|
|-(12)-[12]-12---------------|-------------------------|
|----------------------------|-------------------------|
|
|--------------------| PM| PM--|
| E E E E E E E E E E E E E E E E
|----------------------------|-------------------------|
|----------------------------|-------------------------|
|----------------------------|-------------------------|
|--------------------------4-|--3--------------------4-|
|-----------------------4--2-|--1-----2-----------4--2-|
|---0----0---0-0---0-0--2----|----0-0-0---0-----0-2----|


Bb5 E5 F#B5
E. S +E E Q.. S
|-------15-(15)-17-17b19========17-|
|-17-------------------------------|
|----------------------------------|
|----------------------------------|
|----------------------------------|
|----------------------------------|
|
| PM---| PM----|
| E E E E E E E E
|----------------------------------|
|----------------------------------|
|----------------------------------|
|--3--------------------------4----|
|--1-------------2----------4-2----|
|-----0------0---0--0-----0-2------|


Bb5 F#5B5
~~~~~~~~~
E E E E E Q E +Q. E E E E S S
|-17-17-17-17r17-15------|------------------------------|
|---------------------17-|-(17)----------------15-17-15-|
|------------------------|--------------/14-16----------|
|------------------------|----------17\-----------------|
|------------------------|------------------------------|
|------------------------|------------------------------|
|
| PM------------------------------------|
| E E E E E E E E E E E E E E E E
|------------------------|------------------------------|
|------------------------|------------------------------|
|------------------------|------------------------------|
|--3---------------------|-------------------------4----|
|--1---------------------|----------------------4--2----|
|-----0--0--0--0--0-0--0-|---0--0-0--0----0--0--2-------|


Bb5 E5 F#5 B5
S S S S S S S S S S S S S S S S
|-------------------------------------------------|
|-------15h17p15----------15h17p15----------------|
|-15h16----------16-15h16----------16-15s12-12-12-|
|-------------------------------------------------|
|-------------------------------------------------|
|-------------------------------------------------|
|
| PM---| PM---|
| E E E E E E E E
|-------------------------------------------------|
|-------------------------------------------------|
|-------------------------------------------------|
|--3-----------------------------------------4----|
|--1-----------------2-----------------4-----2----|
|--------0-----0-----0-----0-----0-----2----------|


Bb5 E5 F#5B5 Bb5
Q +E E +Q E E E +E +E E +S E S S S E
|------------------------------|-------------------------------------|
|------------------------------|-------------------------------------|
|-14b16r==(14)-12-(12)\------7-|-9b11==(9)r(9)p7-(7)-----------------|
|-------------------------/9---|---------------------[7]---7-9-7-----|
|------------------------------|---------------------------------7---|
|------------------------------|-------------------------------------|
|
| PM| PM--| PM-----------------------|
| E E E E E E E E E E E E E E E E
|------------------------------|-------------------------------------|
|------------------------------|-------------------------------------|
|------------------------------|-------------------------------------|
|--3-------------------------4-|-3-----------------------------------|
|--1------------2----------4-2-|-1-----------------------------------|
|-------0---0---0---0---0--2---|--------0---0--0--0------0---0---0---|


F5 E5 F5 E5
E a E E E +Q +Q +Q +Q +H +W
|--------------------------|-----------------------|-------------------|
|--------------------------|-----------------------|-------------------|
|-------7-9-(9)b11====(9)--|-(9)---(9)r==(9)-------|-(9)---------------|
|-5-7s9--------------------|-----------------------|-------------------|
|--------------------------|-----------------------|-------------------|
|--------------------------|-----------------------|-------------------|
|
| PM----------------| PM-------------------------------------|
| E E E E E E Q E E E E E E E E E E E E E E E E
|--------------------------|-----------------------|-------------------|
|--------------------------|-----------------------|-------------------|
|--------------------------|-----------------------|-------------------|
|--------------------------|-----------------------|-------------------|
|--------------------------|--3--2--2--2--2--2-2-2-|--3--2-2-2-2-2-2-2-|
|-0---0-0-0--0------0--x\--|--1--0--0--0--0--0-0-0-|--1--0-0-0-0-0-0-0-|


F5 E5 F5 E5 F5E5 F5 E5 F5 E5
+W +W +W +W
|-------------------|------------------|-------------------|-------------------|
|-------------------|------------------|-------------------|-------------------|
|-(9)---------------|-(9)--------------|-(9)---------------|-(9)---------------|
|-------------------|------------------|-------------------|-------------------|
|-------------------|------------------|-------------------|-------------------|
|-------------------|------------------|-------------------|-------------------|
|
| PM-----------------------------| PM---------------------------------|
| E E E E E E E E E E E E E E Q E E E E E E E E E E E E E E E E
|-------------------|------------------|-------------------|-------------------|
|-------------------|------------------|-------------------|-------------------|
|-------------------|------------------|-------------------|-------------------|
|-------------------|------------------|-------------------|-------------------|
|--3--2-2-2-2-2-2-2-|--3--2-2-3-2-2-3--|--3--2-2-2-2-2-2-2-|--3--2-2-2-2-2-2-2-|
|--1--0-0-0-0-0-0-0-|--1--0-0-1-0-0-1--|--1--0-0-0-0-0-0-0-|--1--0-0-0-0-0-0-0-|


F5 E5 F5 E5 F5E5 B5 C5 F5
+W +H +Q Q W W
|-------------------|---------------------||-----------|-----------||
|-------------------|---------------------||o----------|----------o||
|-(9)---------------|-(9)r======(9)---x/--||-----------|-----------||
|-------------------|---------------------||-----------|-----------||
|-------------------|---------------------||o----------|----------o||
|-------------------|---------------------||-----------|-----------||
|
| PM-------------------------------|
| E E E E E E E E E E E E E E Q W Q H.
|-------------------|---------------------||-----------|-----------||
|-------------------|---------------------||o----------|----------o||
|-------------------|---------------------||-----------|-----------||
|-------------------|---------------------||--4--------|-5---------||
|--3--2-2-2-2-2-2-2-|--3--2-2-3--2--2-2---||o-2--------|-3--3-----o||
|--1--0-0-0-0-0-0-0-|--1--0-0-1--0--0-0---||-----------|----1------||


3rd Verse
E5 F5 F#5 E5 F5 F#5
Gtrs I, II
PM----------------------------| PM----------------------------|
E E E E E E E E E E E E E E E E E E E E E E E E E E E E E E E E
||------------------|-----------------|-----------------|-------------------||
||o-----------------|-----------------|-----------------|------------------o||
||------------------|-----------------|-----------------|-------------------||
||------------------|-----------------|-----------------|-------------------||
||o-2-2-2-2-2-2-2-2-|-2-2-2-2-3-3-3-4-|-2-2-2-2-2-2-2-2-|-2-2-2-2-3-3-3-4--o||
||--0-0-0-0-0-0-0-0-|-0-0-0-0-1-1-1-2-|-0-0-0-0-0-0-0-0-|-0-0-0-0-1-1-1-2---||


E
Gtrs I, II
W E E Q H
| |
o /

Gtr VI
E E E E +E E Q E E E E +E E Q
|-------7-(7)------|-7-----6-(6)------|
|-----5-------5----|---5---------5----|
|---4-----------4--|-----4---------4--|
|------------------|------------------|
|------------------|------------------|
|-0----------------|------------------|


E5VII Bb5VI
W +Q. E +H
| | | |
/ / / /

E E E E +E E Q E E E E +E E Q 4x
||--------7-(7)------|--7------6-(6)-------||
||o-----5-------5----|-----5---------5----o||
||----4-----------4--|-------4---------4---||
||-------------------|---------------------||
||o------------------|--------------------o||
||--0----------------|---------------------||


E5VII Bb5VI E5VII Bb5VI
Gtrs I, II
PM PM PM PM
W Q E E +E E Q W Q E E +E E Q
||-----------|-----------------|----------|-------------------||
||o----------|-----------------|----------|------------------o||
||-----------|-----------------|----------|-------------------||
||--9--------|-----------------|-9--------|-------------------||
||o-7--------|-8----8-(8)---8--|-7--------|-8----8-(8)---8---o||
||--0--------|-6--0-6-(6)-0-6--|-0--------|-6--0-6-(6)-0-6----||


N.C.
Gtr I
PM--------------------|
S S E S S E S S E S S E E E E E E E E E
|-------------------------|------------------|
|-------------------------|------------------|
|-------------------------|------------------|
|-------------------------|------------------|
|-------------------------|-----7----5---7---|
|-0-0-0-0-0-0-0-0-0-0-0-0-|-0------6---6---6-|
|
| Gtr II
| PM--------------------|
| S S E S S E S S E S S E E E E E E E E E
|-------------------------|------------------|
|-------------------------|------------------|
|-------------------------|------------------|
|-------------------------|-9-8-7\-----------|
|-------------------------|----------5---7---|
|-0-0-0-0-0-0-0-0-0-0-0-0-|--------6---6---6-|


PM PM
Q E E +E E Q E E E E E E E E
|-----------------|------------------|
|-----------------|------------------|
|-----------------|------------------|
|-----------------|------------------|
|-2----2-(2)---2--|-----7----5---7---|
|-0--0-0-(0)-0-0--|-0------6---6---6-|
|
| PM PM
| Q E E +E E Q E E E E E E E E
|-----------------|------------------|
|-----------------|------------------|
|-----------------|------------------|
|-----------------|-9-8-7\-----------|
|-2----2-(2)---2--|----------5---7---|
|-0--0-0-(0)-0-0--|--------6---6---6-|


PM--------------------|
S S E S S E S S E S S E E E E E E E E E
|-------------------------|------------------|
|-------------------------|------------------|
|-------------------------|------------------|
|-------------------------|------------------|
|-------------------------|-----7----5---7---|
|-0-0-0-0-0-0-0-0-0-0-0-0-|-0------6---6---6-|
|
| PM--------------------|
| S S E S S E S S E S S E E E E E E E E E
|-------------------------|------------------|
|-------------------------|------------------|
|-------------------------|------------------|
|-------------------------|-9-8-7\-----------|
|-------------------------|----------5---7---|
|-0-0-0-0-0-0-0-0-0-0-0-0-|--------6---6---6-|


PM------------|
E E E E E E E E E E E E E E E E
|-----------------|------------------||
|-----------------|------------------||
|-----------------|------------------||
|-----------------|------------------||
|-----------------|-----7----5---7---||
|-0-0-0-0-0-0-0-0-|-0------6---6---6-||
|
| PM------------|
| E E E E E E E E E E E E E E E E
|-----------------|------------------||
|-----------------|------------------||
|-----------------|------------------||
|-----------------|-9-8-7\-----------||
|-----------------|----------5---7---||
|-0-0-0-0-0-0-0-0-|--------6---6---6-||


4th Verse
G#G5F#G5F#5 F5 E5
Gtrs I, II
PM--------------------------------------| PM PM| PM
S S E S S E S S E S S E S S E E E E E E E 4x E Q E E Q E
||--------------------------|--------------------||----------------|
||o-------------------------|-------------------o||----------------|
||--------------------------|--------------------||----------------|
||--------------------------|--------------------||----------------|
||o-------------------------|-----6-5-4-5-4---3-o||---2------2-----|
||--0-0-0-0-0-0-0-0-0-0-0-0-|-5-5-4-3-2-3-2-0-1--||-0-0--0-0-0--0--|


G#G5F#G5F#5 F5 E5 G#G5F#G5F#5 F5 E5
PM------------| PM PM| PM----------------| PM PM| PM
S S E E E E E E E E Q E E Q E S S E E E E E E E E Q E E Q E
|-------------------|---------------|-------------------|-----------------|
|-------------------|---------------|-------------------|-----------------|
|-------------------|---------------|-------------------|-----------------|
|-------------------|---------------|-------------------|-----------------|
|-----6-5-4-5-4---3-|---2------2----|-----6-5-4-5-4---3-|---2------2------|
|-5-5-4-3-2-3-2-0-1-|-0-0--0-0-0--0-|-5-5-4-3-2-3-2-0-1-|-0-0--0-0-0--0---|


G#G5F#G5F#5 F5 E5 G#G5F#G5F#5 F5 B5 E5G5F#5
PM------------| PM PM| PM------------------|
|-3-|
S S E E E E E E E E Q E E Q E S S E E E E E E E H Q Q Q
|-------------------|---------------|-------------------|------------|
|-------------------|---------------|-------------------|------------|
|-------------------|---------------|-------------------|------------|
|-------------------|---------------|-------------------|-4----------|
|-----6-5-4-5-4---3-|---2------2----|-----6-5-4-5-4---3-|-2----2-5-4-|
|-5-5-4-3-2-3-2-0-1-|-0-0--0-0-0--0-|-5-5-4-3-2-3-2-0-1-|------0-3-2-|


Sl
F5 G#5
Gt
W W
|----------|---------------||
|----------|---------------||
|----------|---------------||
|----------|---------------||
|----------|---------------||
|----------|---------------||
|
| Gtrs I, II
| W Q. +E H
|----------|---------------||
|----------|---------------||
|----------|---------------||
|----------|---------------||
|-3--------|-3----(3)S6----||
|-1--------|-1----(1)S4----||


ower Q=144
N.C.(E)
r III
\3.5___________/2___\4.5______/3.5____\6 |
|-3-|
H +Q a +Q +Q +Q +Q. S S S
|----------------------------|---------------------------|
|----------------------------|------------------------x--|
|----------------------------|----------------------x----|
|----------------------------|--------------------x------|
|----------------------------|---------------------------|
|-0--------(0)--(0)--(0)-----|-(0)-----(0)--(0)----------|
|
| W +W
|----------------------------|---------------------------|
|----------------------------|---------------------------|
|----------------------------|---------------------------|
|----------------------------|---------------------------|
|----------------------------|---------------------------|
|-0--------------------------|-(0)-----------------------|


|-3-| |-3-| |-3-|
Q. S S S Q. S S S Q. S S S H W W
|-18----------18----------|-18----------18----|----------|--------|
|-----------x-----------x-|-----------x-------|----------|--------|
|---------x-----------x---|---------x---------|----------|--------|
|-------x-----------x-----|-------x-----------|----------|--------|
|-------------------------|-------------------|----------|--------|
|-------------------------|-------------------|----------|--------|
|
| W +W W +W
|-------------------------|-------------------|----------|--------|
|-------------------------|-------------------|----------|--------|
|-------------------------|-------------------|----------|--------|
|-------------------------|-------------------|----------|--------|
|-------------------------|-------------------|----------|--------|
|--0----------------------|-(0)---------------|-0--------|-(0)----|


Gtrs I, II
W +W W +W W +W
|----------|------------|----------|------------|----------|--------|
|----------|------------|----------|------------|----------|--------|
|----------|------------|----------|------------|----------|--------|
|----------|------------|----------|------------|----------|--------|
|----------|------------|----------|------------|----------|--------|
|-0--------|-(0)--------|-0--------|-(0)--------|-0--------|-(0)----|


Gtr III
W +Q +Q H W +H.. E
|-----------|-----------------|----------|--------------|
|-----------|-----------------|----------|--------------|
|-/8--------|-(8)--(8)\-------|----------|--------------|
|-----------|------------4----|-3--------|-(3)----------|
|-/6--------|-(6)--(6)\-------|----------|--------------|
|-----------|------------2----|-1--------|-(1)----------|
|
| Gtrs I, II
| W +W W +W
|-----------|-----------------|----------|--------------|
|-----------|-----------------|----------|--------------|
|-----------|-----------------|----------|--------------|
|-----------|-----------------|----------|--------------|
|-----------|-----------------|----------|--------------|
|--0--------|-(0)-------------|-0--------|-(0)----------|


\7______
W +Q +Q H W W
|-----------|-----------------|----------|---------|
|-----------|-----------------|----------|---------|
|-/8--------|-(8)--(8)\-------|----------|---------|
|-----------|------------4----|-3--------|---------|
|-/6--------|-(6)--(6)\-------|----------|---------|
|-----------|------------2----|-1--------|--0------|
|
| W +W W +W
|-----------|-----------------|----------|---------|
|-----------|-----------------|----------|---------|
|-----------|-----------------|----------|---------|
|-----------|-----------------|----------|---------|
|-----------|-----------------|----------|---------|
|--0--------|-(0)-------------|-0--------|-(0)-----|


+W +W +W +W
|------------|------------|------------|--------|
|------------|------------|------------|--------|
|------------|------------|------------|--------|
|------------|------------|------------|--------|
|------------|------------|------------|--------|
|-(0)--------|-(0)--------|-(0)--------|-(0)----|
|
| W +W W +W
|------------|------------|------------|--------|
|------------|------------|------------|--------|
|------------|------------|------------|--------|
|------------|------------|------------|--------|
|------------|------------|------------|--------|
|--0---------|-(0)--------|--0---------|-(0)----|


Gtrs I, II
W +W W +W
|----------|------------|----------|--------|
|----------|------------|----------|--------|
|----------|------------|----------|--------|
|----------|------------|----------|--------|
|----------|------------|----------|--------|
|-0--------|-(0)--------|-0--------|-(0)----|


F5(type 2)
Gtr III
\1/ \0.5_________________________
H Q Q Q H Q Q Q Q Q W
|--------------|-------------------|--------------------|-------------*|
|--------------|-------------------|--------------------|-------------*|
|---------[0]--|-[0]--[0]-----[0]--|-[0]--[0]-----0-----|-------------*|
|--------------|-------------------|--------------------|-------------*|
|--------------|-------------------|--------------------|-------------*|
|--------------|-------------------|--------------------|-------------*|
|
| Gtrs I, II
| W +W W E E Q H
|--------------|-------------------|--------------------|-------------*|
|--------------|-------------------|--------------------|-------------*|
|--------------|-------------------|--------------------|-------------*|
|--------------|-------------------|--------------------|-3-----------*|
|--------------|-------------------|--------------------|-3-----------*|
|-0------------|-(0)---------------|--0-----------------|-1-----------*|



Duration Legend
---------------
W - whole; H - half; Q - quarter; E - 8th; S - 16th; T - 32nd; X - 64th; a - acciaccatura
+ - note tied to previous; . - note dotted; .. - note double dotted
Uncapitalized letters represent notes that are staccato (1/2 duration)
Irregular groupings are notated above the duration line
Duration letters will always appear directly above the note/fret number it represents the
duration for. Duration letters with no fret number below them represent rests. Multi-
bar rests are notated in the form Wxn, where n is the number of bars to rest for. Low
melody durations appear below the staff

Tablature Legend
----------------
h - hammer-on
p - pull-off
b - bend
pb - pre-bend
r - bend release (if no number after the r, then release immediately)
/\ - slide into or out of (from/to "nowhere")
s - legato slide
S - shift slide
- natural harmonic
[n] - artificial harmonic
n(n) - tapped harmonic
~ - vibrato
tr - trill
T - tap
TP - trem. picking
PM - palm muting
\n/ - tremolo bar dip; n = amount to dip
\n - tremolo bar down
n/ - tremolo bar up
/n\ - tremolo bar inverted dip
= - hold bend; also acts as connecting device for hammers/pulls
- volume swell (louder/softer)
x - on rhythm slash represents muted slash
o - on rhythm slash represents single note slash

Misc Legend
-----------
| - bar
|| - double bar
||o - repeat start
o|| - repeat end
*| - double bar (ending)
: - bar (freetime)
$ - Segno
& - Coda
Tempo markers - = BPM(8/16=s8/s16), where s8 = swing 8ths, s16 = swing 16ths



Like us on Facebook.....
-> Loading Time :0.0589 sec