crushcrushcrush Tabs & Lyrics by Paramore

crushcrushcrush

guitar tabs lyrics

Paramore

Album : crushcrushcrush rock PlayStop



Hey everybody, I dont have any merite for this tabs, that's just the GP ver 2 but
in ASCII export.. for someone who doesnt have Guitar Pro, this tbas is just
PERFECT.

________________________________________________________________________

TuNING = Drop C#
________________________________________________________________________


GUIT 1



W W W
D#||-------------------|-------------------|-------------------|
A#||-------------------|-------------------|-------------------|
F#||-------------------|-------------------|-------------------|
C#||-------------------|-------------------|-------------------|
G#||-------------------|-------------------|-------------------|
C#||-------------------|-------------------|-------------------|


PM PM PM PM PM PM PM PM
H E E E E E E E E E E E E
-----------------------|--------------------------|
-----------------------|--------6--6--------------|
--------------6--6--6--|--------7--7--------------|
--------------7--7--7--|--7--7--7--7--7--7--7--7--|
--------------4--4--4--|--5--5--5--5--5--5--5--5--|
-----------------------|--------------------------|


PM PM PM PM PM PM PM PM PM PM PM PM PM PM PM PM
E E E E E E E E E E E E E E E E
----------------------------------|--------------------------|
----------10--10------------------|--------3--3--------------|
----------12--12------------------|--------5--5--------------|
--12--12--12--12--12--12--12--12--|--5--5--5--5--5--5--5--5--|
--10--10--10--10--10--10--10--10--|--3--3--3--3--3--3--3--3--|
----------------------------------|--------------------------|


PM PM PM PM PM PM PM PM PM PM PM PM PM PM PM PM
E E E E E E E E E E E E E E E E
--------------------------|--------------------------|
--------6--6--6--6--6--6--|--------6--6--------------|
--------7--7--7--7--7--7--|--------7--7--------------|
--7--7--7--7--7--7--7--7--|--7--7--7--7--7--7--7--7--|
--5--5--5--5--5--5--5--5--|--5--5--5--5--5--5--5--5--|
--------------------------|--------------------------|


PM PM PM PM PM PM PM PM PM PM PM PM PM PM PM PM
E E E E E E E E E E E E E E E E
----------------------------------|--------------------------|
----------10--10------------------|--------3--3--------------|
----------12--12------------------|--------5--5--------------|
--12--12--12--12--12--12--12--12--|--5--5--5--5--5--5--5--5--|
--10--10--10--10--10--10--10--10--|--3--3--3--3--3--3--3--3--|
----------------------------------|--------------------------|


PM PM PM PM PM PM PM PM ^ ^
E E E E E E E E W W
--------------------------|--1----------------|--3----------------|
--------6--6--6--6--6--6--|--1----------------|--3----------------|
--------7--7--7--7--7--7--|--3----------------|--5----------------|
--7--7--7--7--7--7--7--7--|--3----------------|--5----------------|
--5--5--5--5--5--5--5--5--|--1----------------|--3----------------|
--------------------------|-------------------|-------------------|


^ ^ ^
W W W W
--5----------------|--L----------------|--1----------------|--3----------------|
--6----------------|--L----------------|--1----------------|--3----------------|
--7----------------|--L----------------|--3----------------|--5----------------|
--7----------------|--L----------------|--3----------------|--5----------------|
--5----------------|--L----------------|--1----------------|--3----------------|
-------------------|-------------------|-------------------|-------------------|


^
W W E E E E Q Q
--5----------------|--L----------------|--12--13--12------------13----|
--6----------------|--L----------------|--------------13--------------|
--7----------------|--L----------------|------------------12----------|
--7----------------|--L----------------|------------------------------|
--5----------------|--L----------------|------------------------------|
-------------------|-------------------|------------------------------|


H E Q. W W
--12---------L---------|-------------------|-------------------|
-----------------------|-------------------|-------------------|
-----------------------|--7----------------|--L----------------|
-----------------------|--7----------------|--L----------------|
-----------------------|--0----------------|--L----------------|
-----------------------|--0----------------|--L----------------|


W H. Q E. E S E E E Q
-------------------|--------------------|--------------------0----|
-------------------|--------------------|--------------------5----|
--7----------------|--L-----------------|--------------------5----|
--7----------------|--L-----------------|--0---0----3--3-----5----|
--0----------------|--L-----------------|--0---0----3--3-----3----|
--0----------------|--L-----------------|--0---0----3--3----------|


W E. E S E E E Q W
--L----------------|--------------------0----|--L----------------|
--L----------------|--------------------5----|--L----------------|
--L----------------|--3---L-------------5----|--L----------------|
--L----------------|--3---L----0--0-----5----|--L----------------|
--L----------------|--1---L----0--0-----3----|--L----------------|
-------------------|-----------0--0----------|-------------------|


E. E S E E E Q W E E E E E E E E
--------------------0----|--L----------------|--------------------------|
--------------------5----|--L----------------|--------------------------|
--------------------5----|--L----------------|--3--3--3--3--3--3--3--3--|
--0---0----3--3-----5----|--L----------------|--3--3--3--3--3--3--3--3--|
--0---0----3--3-----3----|--L----------------|--1--1--1--1--1--1--1--1--|
--0---0----3--3----------|-------------------|--------------------------|


E E E E E Q. E E E E E E E E
------------------------|--------------------------------|
------------------------|--10--11--10--------------------|
--5--5--5--5--5---------|--------------12--10-----9--10--|
--5--5--5--5--5---------|--------------------------------|
--3--3--3--3--3---------|--------------------------------|
------------------------|--------------------------------|


E E E E E E E E E E E E E E E E
------------------------------|--------------------------------|
------------------------------|--10--11--10--------------------|
--9---------------------------|--------------12--10-----9--10--|
-----12--10-----10-----10-----|--------------------------------|
------------------------------|--------------------------------|
------------------------------|--------------------------------|


PM PM PM PM PM PM PM PM
E E E E H E E E E E E E E
----------------10--------|--------------------------|
--------------------------|--------6--6--------------|
--9-----------------------|--------7--7--------------|
-----12--10---------------|--7--7--7--7--7--7--7--7--|
--------------------------|--5--5--5--5--5--5--5--5--|
--------------------------|--------------------------|


PM PM PM PM PM PM PM PM PM PM PM PM PM PM PM PM
E E E E E E E E E E E E E E E E
----------------------------------|--------------------------|
----------10--10------------------|--------3--3--------------|
----------12--12------------------|--------5--5--------------|
--12--12--12--12--12--12--12--12--|--5--5--5--5--5--5--5--5--|
--10--10--10--10--10--10--10--10--|--3--3--3--3--3--3--3--3--|
----------------------------------|--------------------------|


PM PM PM PM PM PM PM PM PM PM PM PM PM PM PM PM
E E E E E E E E E E E E E E E E
--------------------------|--------------------------|
--------6--6--6--6--6--6--|--------6--6--------------|
--------7--7--7--7--7--7--|--------7--7--------------|
--7--7--7--7--7--7--7--7--|--7--7--7--7--7--7--7--7--|
--5--5--5--5--5--5--5--5--|--5--5--5--5--5--5--5--5--|
--------------------------|--------------------------|


PM PM PM PM PM PM PM PM PM PM PM PM PM PM PM PM
E E E E E E E E E E E E E E E E
----------------------------------|--------------------------|
----------10--10------------------|--------3--3--------------|
----------12--12------------------|--------5--5--------------|
--12--12--12--12--12--12--12--12--|--5--5--5--5--5--5--5--5--|
--10--10--10--10--10--10--10--10--|--3--3--3--3--3--3--3--3--|
----------------------------------|--------------------------|


PM PM PM PM PM PM PM PM ^ ^
E E E E E E E E W W
--------------------------|--1----------------|--3----------------|
--------6--6--6--6--6--6--|--1----------------|--3----------------|
--------7--7--7--7--7--7--|--3----------------|--5----------------|
--7--7--7--7--7--7--7--7--|--3----------------|--5----------------|
--5--5--5--5--5--5--5--5--|--1----------------|--3----------------|
--------------------------|-------------------|-------------------|


^ ^ ^
W W W W
--5----------------|--L----------------|--1----------------|--3----------------|
--6----------------|--L----------------|--1----------------|--3----------------|
--7----------------|--L----------------|--3----------------|--5----------------|
--7----------------|--L----------------|--3----------------|--5----------------|
--5----------------|--L----------------|--1----------------|--3----------------|
-------------------|-------------------|-------------------|-------------------|


^
W W E E E E Q Q
--5----------------|--L----------------|--12--13--12------------13----|
--6----------------|--L----------------|--------------13--------------|
--7----------------|--L----------------|------------------12----------|
--7----------------|--L----------------|------------------------------|
--5----------------|--L----------------|------------------------------|
-------------------|-------------------|------------------------------|


H E Q. W W
--12---------L---------|-------------------|-------------------|
-----------------------|-------------------|-------------------|
-----------------------|--7----------------|--L----------------|
-----------------------|--7----------------|--L----------------|
-----------------------|--0----------------|--L----------------|
-----------------------|--0----------------|--L----------------|


W H. Q E. E S E E E Q
-------------------|--------------------|--------------------0----|
-------------------|--------------------|--------------------5----|
--7----------------|--L-----------------|--------------------5----|
--7----------------|--L-----------------|--0---0----3--3-----5----|
--0----------------|--L-----------------|--0---0----3--3-----3----|
--0----------------|--L-----------------|--0---0----3--3----------|


W E. E S E E E Q W
--L----------------|--------------------0----|--L----------------|
--L----------------|--------------------5----|--L----------------|
--L----------------|--3---L-------------5----|--L----------------|
--L----------------|--3---L----0--0-----5----|--L----------------|
--L----------------|--1---L----0--0-----3----|--L----------------|
-------------------|-----------0--0----------|-------------------|


E. E S E E E Q W E E E E E E E E
--------------------0----|--L----------------|--------------------------|
--------------------5----|--L----------------|--------------------------|
--------------------5----|--L----------------|--3--3--3--3--3--3--3--3--|
--0---0----3--3-----5----|--L----------------|--3--3--3--3--3--3--3--3--|
--0---0----3--3-----3----|--L----------------|--1--1--1--1--1--1--1--1--|
--0---0----3--3----------|-------------------|--------------------------|


E E E E E Q. E Q E Q E E H E E Q
------------------------|------------------------|-----------------------|
------------------------|------------------------|-----------------------|
--5--5--5--5--5---------|------------------5-----|-----------------------|
--5--5--5--5--5---------|--0-------3-------5-----|--------------8--8\----|
--3--3--3--3--3---------|--0-------3-------3-----|--------------8--8\----|
------------------------|--0-------3-------------|--------------8--8\----|


E Q E Q E E H E E Q E Q E Q E E
------------------------|-----------------------|------------------------|
------------------------|-----------------------|------------------------|
------------------5-----|-----------------------|------------------5-----|
--0-------3-------5-----|--------------8--8\----|--0-------3-------5-----|
--0-------3-------3-----|--------------8--8\----|--0-------3-------3-----|
--0-------3-------------|--------------8--8\----|--0-------3-------------|


H E E Q E Q E Q E E H E E Q
-----------------------|------------------------|-----------------------|
-----------------------|------------------------|-----------------------|
-----------------------|------------------5-----|-----------------------|
--------------8--8\----|--0-------3-------5-----|--------------8--8\----|
--------------8--8\----|--0-------3-------3-----|--------------8--8\----|
--------------8--8\----|--0-------3-------------|--------------8--8\----|


E E E E E E E E E E E E E E E E
--13--13--13--12--12--12--10--10--|--10--10--10--10--10--10--10--10--|
--10--10--10--10--10--10--10--10--|--10--10--10--10--10--10--10--10--|
----------------------------------|----------------------------------|
----------------------------------|----------------------------------|
----------------------------------|----------------------------------|
----------------------------------|----------------------------------|


E E E E E E E E E E E E E E E E
--13--13--13--12--12--12--10--10--|--10--10--10--10--10--10--10--10--|
--10--10--10--10--10--10--10--10--|--10--10--10--10--10--10--10--10--|
----------------------------------|----------------------------------|
----------------------------------|----------------------------------|
----------------------------------|----------------------------------|
----------------------------------|----------------------------------|


E E E E E E E E E E E E E E E E
--13--13--13--12--12--12--10--10--|--10--10--10--10--10--10--10--10--|
--10--10--10--10--10--10--10--10--|--10--10--10--10--10--10--10--10--|
----------------------------------|----------------------------------|
----------------------------------|----------------------------------|
----------------------------------|----------------------------------|
----------------------------------|----------------------------------|


E E E E E E E E E E E E E E E E
--13--13--13--12--12--12--10--10--|--10--10--10--10--10--10--10--10--|
--10--10--10--10--10--10--10--10--|--10--10--10--10--10--10--10--10--|
----------------------------------|----------------------------------|
----------------------------------|----------------------------------|
----------------------------------|----------------------------------|
----------------------------------|----------------------------------|


E E E E E E E E E E E E E E E E
--------------------------|--------------------------|
--------------------------|--------------------------|
--------------------5--5--|--5--5--5--5--5--5--5--5--|
--0--0--0--3--3--3--5--5--|--5--5--5--5--5--5--5--5--|
--0--0--0--3--3--3--3--3--|--3--3--3--3--3--3--3--3--|
--0--0--0--3--3--3--------|--------------------------|


E E E E E E E E E E E E E E E E E. E S E E E Q
--------------------------|--------------------------|--------------------0----|
--------------------------|--------------------------|--------------------5----|
--3--3--3-----------5--5--|--5--5--5--5--6--6--6--6--|--------------------5----|
--3--3--3--0--0--0--5--5--|--5--5--5--5--7--7--7--7--|--0---0----3--3-----5----|
--1--1--1--0--0--0--3--3--|--3--3--3--3--4--4--4--4--|--0---0----3--3-----3----|
-----------0--0--0--------|--------------------------|--0---0----3--3----------|


W E E E E E E E E E E E E E E E E
--L----------------|--------------------------|--------------------------|
--L----------------|--------------------------|--------------------------|
--L----------------|--3--3--3--3--3--3--3--3--|--5--5--5--5--5--5--5--5--|
--L----------------|--3--3--3--3--3--3--3--3--|--5--5--5--5--5--5--5--5--|
--L----------------|--1--1--1--1--1--1--1--1--|--3--3--3--3--3--3--3--3--|
-------------------|--------------------------|--------------------------|


E. E S E E E Q W E. E S E E E Q
--------------------0----|--L----------------|--------------------0----|
--------------------5----|--L----------------|--------------------5----|
--------------------5----|--L----------------|--3---L-------------5----|
--0---0----3--3-----5----|--L----------------|--3---L----0--0-----5----|
--0---0----3--3-----3----|--L----------------|--1---L----0--0-----3----|
--0---0----3--3----------|-------------------|-----------0--0----------|


W E. E S E E E Q W
--L----------------|--------------------0----|--L----------------|
--L----------------|--------------------5----|--L----------------|
--L----------------|--------------------5----|--L----------------|
--L----------------|--0---0----3--3-----5----|--L----------------|
--L----------------|--0---0----3--3-----3----|--L----------------|
-------------------|--0---0----3--3----------|-------------------|


E E E E E E E E E E E E E E E E
--------------------------|--------------------------|
--------------------------|--------------------------|
--3--3--3--3--3--3--3--3--|--5--5--5--5--5--5--5--5--|
--3--3--3--3--3--3--3--3--|--5--5--5--5--5--5--3--3--|
--1--1--1--1--1--1--1--1--|--3--3--3--3--3--3--3--3--|
--------------------------|--------------------------|


Q. Q. E E Q. H E
--12b------12------12b--12--|---L------10--------12--|
----------------------------|------------------------|
----------------------------|------------------------|
----------------------------|------------------------|
----------------------------|------------------------|
----------------------------|------------------------|


Q. Q. E E W
--12b------12------10--10--|---L----------------|
---------------------------|--------------------|
---------------------------|--------------------|
---------------------------|--------------------|
---------------------------|--------------------|
---------------------------|--------------------|


E E E E E E E E E E E E E E E E
--13--------------10------13--12--|--13--15--13--15--17--18--17--18--|
------10--11--10------13----------|----------------------------------|
----------------------------------|----------------------------------|
----------------------------------|----------------------------------|
----------------------------------|----------------------------------|
----------------------------------|----------------------------------|


E E H.
--22--L\---------------|---------------||
-----------------------|---------------||
-----------------------|---------------||
-----------------------|---------------||
-----------------------|---------------||
-----------------------|---------------||


___________________________________________________________________________
___________________________________________________________________________
___________________________________________________________________________


GUIT 2



W W W
D#||-------------------|-------------------|-------------------|
A#||-------------------|-------------------|-------------------|
F#||-------------------|-------------------|-------------------|
C#||-------------------|-------------------|-------------------|
G#||-------------------|-------------------|-------------------|
C#||-------------------|-------------------|-------------------|


W E E E E E E E E E E E E E E E E
-------------------|--------------------------|--------------------------|
-------------------|--6--5--6--5--6--5--6--5--|--6--5--6--5--6--5--6--5--|
-------------------|--------------------------|--------------------------|
-------------------|--------------------------|--------------------------|
-------------------|--------------------------|--------------------------|
-------------------|--------------------------|--------------------------|


E E E E E E E E E E E E E E E E
--------------------------|--------------------------|
--6--5--6--5--6--5--6--5--|--6--5--6--5--6--5--6--5--|
--------------------------|--------------------------|
--------------------------|--------------------------|
--------------------------|--------------------------|
--------------------------|--------------------------|


E E E E E E E E E E E E E E E E
--------------------------|--------------------------|
--6--5--6--5--6--5--6--5--|--6--5--6--5--6--5--6--5--|
--------------------------|--------------------------|
--------------------------|--------------------------|
--------------------------|--------------------------|
--------------------------|--------------------------|


E E E E E E E E E E E E E E E E W
--------------------------|--------------------------|-------------------|
--6--5--6--5--6--5--6--5--|--6--5--6--5--6--5--6--5--|-------------------|
--------------------------|--------------------------|-------------------|
--------------------------|--------------------------|-------------------|
--------------------------|--------------------------|-------------------|
--------------------------|--------------------------|-------------------|


W W W W
-------------------|-------------------|-------------------|-------------------|
-------------------|-------------------|-------------------|-------------------|
-------------------|-------------------|-------------------|-------------------|
-------------------|-------------------|-------------------|-------------------|
-------------------|-------------------|-------------------|-------------------|
-------------------|-------------------|-------------------|-------------------|


W W W
-------------------|-------------------|-------------------|
-------------------|-------------------|-------------------|
-------------------|-------------------|-------------------|
-------------------|-------------------|-------------------|
-------------------|-------------------|-------------------|
-------------------|-------------------|-------------------|


E E E E E E E E E E E E E Q.
--------------------------|------------------------|---------|---------|
--------------------------|------------------------|---------|---------|
--------------------------|------------------------|---------|---------|
--------------------------|------------------------|---------|---------|
--8--8-----8--8--8-----8--|--7--7-----7--7---------|---------|---------|
--8--8-----8--8--8-----8--|--7--7-----7--7---------|---------|---------|


E. E S E E E Q W
---------|---------|-------------------------|-------------------|
---------|---------|-------------------------|-------------------|
---------|---------|--------------------5----|--L----------------|
---------|---------|--0---0----3--3-----5----|--L----------------|
---------|---------|--0---0----3--3-----3----|--L----------------|
---------|---------|--0---0----3--3----------|-------------------|


E. E S E E E Q W E. E S E E E Q
-------------------------|-------------------|-------------------------|
-------------------------|-------------------|-------------------------|
--3---L-------------5----|--L----------------|--------------------5----|
--3---L----0--0-----5----|--L----------------|--0---0----3--3-----5----|
--1---L----0--0-----3----|--L----------------|--0---0----3--3-----3----|
-----------0--0----------|-------------------|--0---0----3--3----------|


W E E E E E E E E E E E E E Q.
-------------------|--------------------------|------------------------|
-------------------|--------------------------|------------------------|
--L----------------|--3--3--3--3--3--3--3--3--|--5--5--5--5--5---------|
--L----------------|--3--3--3--3--3--3--3--3--|--5--5--5--5--5---------|
--L----------------|--1--1--1--1--1--1--1--1--|--3--3--3--3--3---------|
-------------------|--------------------------|------------------------|


E E E E E E E E E E E E E E E E
--------------------------|--------------------------|
--------------------------|--------------------------|
--------------------5-----|--5-----5-----5-----5-----|
--0-----0-----0-----5-----|--5-----5-----5-----5-----|
--0-----0-----0-----3-----|--3-----3-----3-----3-----|
--0-----0-----0-----------|--------------------------|


E E E E E E E E E E E Q E E E E E E E E E E E
--------------------------|-------------------------|--------------------------|
--------------------------|-------------------------|--6--5--6--5--6--5--6--5--|
--------------------5-----|--5-----5-------6--6--6--|--------------------------|
--0-----0-----0-----5-----|--5-----5-------7--7--7--|--------------------------|
--0-----0-----0-----3-----|--3-----3-------4--4--4--|--------------------------|
--0-----0-----0-----------|-------------------------|--------------------------|


E E E E E E E E E E E E E E E E
--------------------------|--------------------------|
--6--5--6--5--6--5--6--5--|--6--5--6--5--6--5--6--5--|
--------------------------|--------------------------|
--------------------------|--------------------------|
--------------------------|--------------------------|
--------------------------|--------------------------|


E E E E E E E E E E E E E E E E
--------------------------|--------------------------|
--6--5--6--5--6--5--6--5--|--6--5--6--5--6--5--6--5--|
--------------------------|--------------------------|
--------------------------|--------------------------|
--------------------------|--------------------------|
--------------------------|--------------------------|


E E E E E E E E E E E E E E E E
--------------------------|--------------------------|
--6--5--6--5--6--5--6--5--|--6--5--6--5--6--5--6--5--|
--------------------------|--------------------------|
--------------------------|--------------------------|
--------------------------|--------------------------|
--------------------------|--------------------------|


E E E E E E E E W W
--------------------------|-------------------|-------------------|
--6--5--6--5--6--5--6--5--|-------------------|-------------------|
--------------------------|-------------------|-------------------|
--------------------------|-------------------|-------------------|
--------------------------|-------------------|-------------------|
--------------------------|-------------------|-------------------|


W W W W
-------------------|-------------------|-------------------|-------------------|
-------------------|-------------------|-------------------|-------------------|
-------------------|-------------------|-------------------|-------------------|
-------------------|-------------------|-------------------|-------------------|
-------------------|-------------------|-------------------|-------------------|
-------------------|-------------------|-------------------|-------------------|


W W E E E E E E E E
-------------------|-------------------|--------------------------|
-------------------|-------------------|--------------------------|
-------------------|-------------------|--------------------------|
-------------------|-------------------|--------------------------|
-------------------|-------------------|--8--8-----8--8--8-----8--|
-------------------|-------------------|--8--8-----8--8--8-----8--|


E E E E E Q.
------------------------|---------|---------|---------|---------|
------------------------|---------|---------|---------|---------|
------------------------|---------|---------|---------|---------|
------------------------|---------|---------|---------|---------|
--7--7-----7--7---------|---------|---------|---------|---------|
--7--7-----7--7---------|---------|---------|---------|---------|


E. E S E E E Q W E. E S E E E Q
-------------------------|-------------------|-------------------------|
-------------------------|-------------------|-------------------------|
--------------------5----|--L----------------|--3---L-------------5----|
--0---0----3--3-----5----|--L----------------|--3---L----0--0-----5----|
--0---0----3--3-----3----|--L----------------|--1---L----0--0-----3----|
--0---0----3--3----------|-------------------|-----------0--0----------|


W E. E S E E E Q W
-------------------|-------------------------|-------------------|
-------------------|-------------------------|-------------------|
--L----------------|--------------------5----|--L----------------|
--L----------------|--0---0----3--3-----5----|--L----------------|
--L----------------|--0---0----3--3-----3----|--L----------------|
-------------------|--0---0----3--3----------|-------------------|


E E E E E E E E E E E E E Q. W
--------------------------|------------------------|-------------------|
--------------------------|------------------------|-------------------|
--3--3--3--3--3--3--3--3--|--5--5--5--5--5---------|-------------------|
--3--3--3--3--3--3--3--3--|--5--5--5--5--5---------|-------------------|
--1--1--1--1--1--1--1--1--|--3--3--3--3--3---------|-------------------|
--------------------------|------------------------|-------------------|


W W
-------------------|-------------------|-------------------|-------------------|
-------------------|-------------------|-------------------|-------------------|
-------------------|-------------------|-------------------|-------------------|
-------------------|-------------------|-------------------|-------------------|
-------------------|-------------------|-------------------|-------------------|
-------------------|-------------------|-------------------|-------------------|


W
-------------------|-------------------|-------------------|
-------------------|-------------------|-------------------|
-------------------|-------------------|-------------------|
-------------------|-------------------|-------------------|
-------------------|-------------------|-------------------|
-------------------|-------------------|-------------------|


E Q E Q E E H E E Q E Q E Q E E
------------------------|-----------------------|------------------------|
------------------------|-----------------------|------------------------|
------------------5-----|-----------------------|------------------5-----|
--0-------3-------5-----|--------------8--8\----|--0-------3-------5-----|
--0-------3-------3-----|--------------8--8\----|--0-------3-------3-----|
--0-------3-------------|--------------8--8\----|--0-------3-------------|


H E E Q E Q E Q E E H E E Q
-----------------------|------------------------|-----------------------|
-----------------------|------------------------|-----------------------|
-----------------------|------------------5-----|-----------------------|
--------------8--8\----|--0-------3-------5-----|--------------8--8\----|
--------------8--8\----|--0-------3-------3-----|--------------8--8\----|
--------------8--8\----|--0-------3-------------|--------------8--8\----|


E Q E Q E E H E E Q E E E E E E E E
------------------------|-----------------------|--------------------------|
------------------------|-----------------------|--------------------------|
------------------5-----|-----------------------|--------------------5--5--|
--0-------3-------5-----|--------------8--8\----|--0--0--0--3--3--3--5--5--|
--0-------3-------3-----|--------------8--8\----|--0--0--0--3--3--3--3--3--|
--0-------3-------------|--------------8--8\----|--0--0--0--3--3--3--------|


E E E E E E E E E E E E E E E E
--------------------------|--------------------------|
--------------------------|--------------------------|
--5--5--5--5--5--5--5--5--|--3--3--3-----------5--5--|
--5--5--5--5--5--5--5--5--|--3--3--3--0--0--0--5--5--|
--3--3--3--3--3--3--3--3--|--1--1--1--0--0--0--3--3--|
--------------------------|-----------0--0--0--------|


E E E E E E E E E. E S E E E Q W
--------------------------|-------------------------|-------------------|
--------------------------|-------------------------|-------------------|
--5--5--5--5--6--6--6--6--|--------------------5----|--L----------------|
--5--5--5--5--7--7--7--7--|--0---0----3--3-----5----|--L----------------|
--3--3--3--3--4--4--4--4--|--0---0----3--3-----3----|--L----------------|
--------------------------|--0---0----3--3----------|-------------------|


E E E E E E E E E E E E E E E E E. E S E E E Q
--------------------------|--------------------------|-------------------------|
--------------------------|--------------------------|-------------------------|
--3--3--3--3--3--3--3--3--|--5--5--5--5--5--5--5--5--|--------------------5----|
--3--3--3--3--3--3--3--3--|--5--5--5--5--5--5--5--5--|--0---0----3--3-----5----|
--1--1--1--1--1--1--1--1--|--3--3--3--3--3--3--3--3--|--0---0----3--3-----3----|
--------------------------|--------------------------|--0---0----3--3----------|


W E. E S E E E Q W
-------------------|-------------------------|-------------------|
-------------------|-------------------------|-------------------|
--L----------------|--3---L-------------5----|--L----------------|
--L----------------|--3---L----0--0-----5----|--L----------------|
--L----------------|--1---L----0--0-----3----|--L----------------|
-------------------|-----------0--0----------|-------------------|


E. E S E E E Q W E E E E E E E E
-------------------------|-------------------|--------------------------|
-------------------------|-------------------|--------------------------|
--------------------5----|--L----------------|--3--3--3--3--3--3--3--3--|
--0---0----3--3-----5----|--L----------------|--3--3--3--3--3--3--3--3--|
--0---0----3--3-----3----|--L----------------|--1--1--1--1--1--1--1--1--|
--0---0----3--3----------|-------------------|--------------------------|


E E E E E E E E E E E E E E E E
--------------------------|--------------------------|
--------------------------|--------------------------|
--5--5--5--5--5--5--5--5--|--7--7--7--7--7--7--7--7--|
--5--5--5--5--5--5--5--5--|--7--7--7--7--7--7--7--7--|
--3--3--3--3--3--3--3--3--|--5--5--5--5--5--5--5--5--|
--------------------------|--------------------------|


E E E E E E E E E E E E E E E E
--------------------------|--------------------------|
--------------------------|--------------------------|
--6--6--6--6--6--6--6--6--|--5--5--5--5--5--5--5--5--|
--7--7--7--7--7--7--7--7--|--5--5--5--5--5--5--5--5--|
--4--4--4--4--4--4--4--4--|--3--3--3--3--3--3--3--3--|
--------------------------|--------------------------|


E E E E E E E E E E E E E E E E
--------------------------|--------------------------|
--------------------------|--------------------------|
--4--4--4--4--4--4--4--4--|--3--3--3--3--3--3--3--3--|
--5--5--5--5--5--5--5--5--|--3--3--3--3--3--3--3--3--|
--2--2--2--2--2--2--2--2--|--1--1--1--1--1--1--1--1--|
--------------------------|--------------------------|


E E E E E E E E Q H.
--------------------------|--------------------|---------------||
--------------------------|--------------------|---------------||
--5--5--5--5--5--6--6--6--|--7-----------------|---------------||
--5--5--5--5--5--7--7--7--|--7-----------------|---------------||
--3--3--3--3--3--4--4--4--|--5-----------------|---------------||
--------------------------|--------------------|---------------||
















Duration Legend
---------------
W - whole
H - half
Q - quarter
E - 8th
S - 16th
T - 32nd
X - 64th
. - note dotted
|-n-| - n-tuplets


Tablature Legend
----------------
L - tied note
x - dead note
g - grace note
(n) - ghost note
> - accentuded note
NH - natural harmonic
AH - artificial harmonic
TH - tapped harmonic
SH - semi harmonic
PH - pitch harmonic
h - hammer on
p - pull off
b - bend
br - bendRelease
pb - preBend
pbr - preBendRelease
brb - bendReleaseBend
\n/ - tremolo bar dip
\n - tremolo bar dive
-/n - tremolo bar Release up
/n\ - tremolo bar inverted dip
/n - tremolo bar return
-\n - tremolo bar Release down
S - shift slide
s - legato slide
/ - slide into from below or out of upwards
\ - slide into from above or out of downwards
~ - vibrato
W - wide vibrato
tr - trill
TP - tremolo picking
T - tapping
S - slap
P - pop
< - fade in
^ - brush up
v - brush down

Like us on Facebook.....
-> Loading Time :0.0156 sec