Young Grow Old Tabs & Lyrics by Creed

Young Grow Old

guitar tabs lyrics

Creed

Album : Weathered rock PlayStop



Intro
e--------------------------------------------------------
b-------------------------13----------------------------
g------5-5-4--4-4-3-----12--10-10-12p10----10-10----10-10-
d--0-0-5-5-4--4-4-3---0-------------------12---------12-------12
a--0-0-3-3-2--2-2-1---0-------------------------------
d--0-0------------------0--------------------------------


e----------------------------l

b--12-----------------------l
g------5-5-4--4-4-3--3-3-3-3-l
d------5-5-4--4-4-3--3-3-3-3-l
a------5-5-4--4-4-3--3-3-3-3-l
d--------------------------------l

Play 2x
e-----------------------------
b-----------------------------
g---7----9/10-12----5/7-9----
d-0-x-00-x-x--x--00-x-x-x-00---
a-0-5-00-7/8--10--00-3/5-7-00
d-0---00---------00-------00---
2nd time
e-------l--------
b-------l--------
g-4/5-7-l--------
d-x-x-x-l---3-0--
a-2/3-5-l---3-0--
d-------l---3-0--

It's not finished yet but this should get you started on the good parts.
For corrections E-mail me at Sexyman7408@aol.com


Like us on Facebook.....
-> Loading Time :0.0210 sec