You Lied Tabs & Lyrics by Green Day

You Lied

guitar tabs lyrics

Green Day

Album : Time of Your Life (Good Riddance) punk PlayStop



Artist: Green Day
Song name: You Lied
Album: Shenanigans
Tuning: Normal
Tabbed by: Eric


Hi, this is the correct way to play Green Day's You Lied! :)
I saw the other version of the song hete on UG, and then played it along with the track,
it did'nt sounded right... and It was'nt so hard to figure out the right way to play

:P
Here it is!

x = finger mute

/ = slide

p = pull off

~ = Let ring

Intro/Verse 1:

Guitar I (Low distortion):

G Gb Em F Em F
E|-------------------------------------------------------|
B|-------------------------------------------------------|
G|-------------------------------------------------------|
D|--5/-6-6-6-6-6-6-6---2/--3-3-3-3-3-3--2/--3-3-3-3-3-3--|
A|--5/-6-6-6-6-6-6-6---2/--3-3-3-3-3-3--2/--3-3-3-3-3-3--|
E|--3/-4-4-4-4-4-4-4---0/--1-1-1-1-1-1--0/--1-1-1-1-1-1--|
x x x x x x x x x x x x x x x x x x x

Guitar II (high distortion):

Listen to the song and you will figure out when guitar II comes in ;)
Em F G Gb
E|---------| E|---------|
A|---------| B|---------|
G|---------| G|---------|
D|--2/--3--| and D|--5/--6--|
B|--2/--3--| A|--5/--6--|
E|--0/--1--| E|--3/--4--|

Chorus:

Guitar II (high distortion):
Eb Db
E|-----------------------|
B|-----------------------|
G|--8-8-8-8---6-6-6-6-6--|
D|--8-8-8-8---6-6-6-6-6--| x4
A|--6-6-6-6---4-4-4-4-4--|
E|-----------------------|


Verse 2:

Guitar II (High distortion):
G Gb Em F Em F
E|--------------------------------------------------|
B|--------------------------------------------------|
G|--------------------------------------------------|
D|--5/-6-6-6-6-6----2/--3-3-3-3-3---2/--3-3-3-3-3---|
A|--5/-6-6-6-6-6----2/--3-3-3-3-3---2/--3-3-3-3-3---|
E|--3/-4-4-4-4-4----0/--1-1-1-1-1---0/--1-1-1-1-1---|
x x x x x x x x x x x x x x x x
Bridge:


Guitar II (high distortion) plays verse.


Guitar I (low distortion):

E|-------------------------------4--------------|
B|------1---4---1--------1-----4------------3---|
G|--0p1------------0p1-------------------2-----2|
D|-----------------------------------2p3--------|
A|----------------------------------------------|
E|----------------------------------------------|


Then play chorus again.


Outro:


Guitar I (low distortion):


Gb Em
E|------------------|
B|------------------|
G|------------------| and repeat...
D|--5/-6-6-6-6-6----|
A|--5/-6-6-6-6-6----|
E|--3/-4-4-4-4-4----|
x x x x x


Guitar II (high distortion):

E|--1--------1------------1-------------1--------|
B|----4---2----4---2---4-----4---2---------4--2--|
G|-----------------------------------------------|
D|-----------------------------------------------|
A|-----------------------------------------------|
E|-----------------------------------------------|

And end on:


Guitar I (low distortion):

Gb
E|------|
B|------|
G|------|
D|--6~--|
A|--6~--|
E|--4~--|

That's it! :)

Hope you liked the tab! :)

If you find anything wrong in the tab, please send an email to fjol.av@hotmail.com and
me what i can change :)

And, here's the lyrics and the chords to Guitar I:


Gb G/Gb
You gotta problem you just can't hide

Gb Em/F G/Gb
Compulsive habits that never seem to die

Gb G/Gb
Your breath has taken up all the air

Gb G/Gb
Your teeth are rotting

G Em/F
To black holes in your head


Eb Db
Well reality is due

Eb Db
What you say just can't be true

Eb Db
When the story is streched and so far-fetched

Eb Db
That you're lacking an excuse

You Lied...


G/Gb G/Gb


Gb G/Gb
Your mother allowed you for just one white lie

Gb
But now she's dead

Gb Em/F G/Gb
and she left you with a problem

Gb G/Gb
Pinocchio has pierced your tongue

Gb Em/F
Your nose is growin into the 3rd dimension

Eb Db
Well reality is due

Eb Db
What you say just can't be true

Eb Db
When the story is stretched and so far-fetched

Eb Db
That you're lacking an excuse

You Lied...

PLAY BRIDGE

Eb Db
Well reality is due

Eb Db
What you say just can't be true

Eb Db
When the story is stretched and so far-fetched

Eb Db
That you're lacking an excuse


You lied...

Like us on Facebook.....
-> Loading Time :0.0150 sec