Woman From Tokyo Tabs & Lyrics by Deep Purple

Woman From Tokyo

guitar tabs lyrics

Deep Purple

Album : Nobody's Perfect live PlayStop



Woman From Tokyo
By: Deep Purple

This is a great song and a lot of fun to play
There is actually two guitars but I have both parts for one guitar


Intro:

e|------------------------------------------------||

B|------------------------------------------------||
G|---2---2p1---2--1-------------------------2~~---||
D|---2---2-2---2-2--2-------2~~----2~~2-0h2------||
A|-------------------2---0h2-----0h2--------------||
E|-0---------0---------0------------------------0-||

e|-------------------------------------------------||
B|-------------------------------------------------||
G|---2---2p1---2--1--------------------------------||
D|---2---2-2---2-2--2--3--4--5------5~~--5-4-3-2--||
A|-------------------2--3-4--5---5h7----5-4-3-2---||
E|-0---------0-------------------------------------||

(Main Riff)
e|---------------------------------------------||
B|---------------------------------------------||
G|---2---2-1---2--1--------------2---2-2-2-1--||
D|---2---2-2---2-2--2-------2---2---2-1--2-2--|| x2
A|-------------------2---0h2-------------------||
E|-0---------0---------0-------0---------0-----||

I cant figure out the verse because there are two guitars playing
But I think its G to A

Chorus/Outro
(Main Riff)
e|---------------------------------------------||
B|---------------------------------------------||
G|---2---2-1---2--1--------------2---2-2-2-1--||
D|---2---2-2---2-2--2-------2---2---2-1--2-2--|| x2
A|-------------------2---0h2-------------------||
E|-0---------0---------0-------0---------0-----||

That's pretty much it but there's also this
Bridge/Solo: a blues progression
D A E
e|--------------------------------------------------------------||
B|--------------------------------------------------------------||
G|-----4-------4------------------------------------------------||
D|-0-0---0-0-0---0------4-------4-------------------------------||
A|------------------0-0---0-0-0---0-----4---2h4-2-----4--2h4---||
E|----------------------------------0-0---0-------0-0---0-----0-||
D A E
e|----------------------------------------------------------------||
B|----------------------------------------------------------------||
G|-----4-------4--------------------------------------------------||
D|-0-0---0-0-0---0------4-------4---------------------------------||
A|------------------0-0---0-0-0---0-----4-------4-------4-------4-||
E|----------------------------------0-0---0-0-0---0-0-0---0-0-0---||

B A E
e|--------------------------------------------------||
B|--------------------------------------------------||
G|--------------------------------------------------||
D|--------------------------------------------------||
A|-----9-------9-------7-------7-------4-------4----||
E|-7-7---7-7-7---7-5-5---5-5-5---5-0-0---0-0-0------||

Thats it
If anyone knows the verse you can email me at Atwbthe3rd@yahoo.com
I'm pretty sure the main riff is right

-Adam Brunell




Like us on Facebook.....
-> Loading Time :0.0245 sec