With You Tabs & Lyrics by LINKIN PARK

With You

guitar tabs lyrics

LINKIN PARK

Album : Live in Texas albums i own PlayStop



linkin park
reanimation
~~~~~~~~~~~~~~~~~ wth>you~~~~~~~~~~~~~~~
intro
>d----------------------------------------|
>A----------------------------------------|
>F----------------------------------------|
>B --3---7--7-7-5-7-5---------------------| x4
>G --3---7--7-7-5-7-5---------------------|
>B --3---7--7-7-5-7-5---------------------|


>Chorus
>d----------------------------------------|
>A----------------------------------------|
>F----------------------------------------| x4
>B --3-----9-----3-----6------------------|
>G --3-----9-----3-----6------------------|
>B --3-----9-----3-----6------------------|

>Verse
>d -------------------------------------------|
>A -------------------------------------------|
>F -------------------------------------------|
>B ----55-----55-----0055--------55-----------|
>G ----55-----55-----0055--------55-----------|
>B ----55-----55-----0055--------55-----------|

intro
>d----------------------------------------|
>A----------------------------------------|
>F----------------------------------------|
>B --3---7--7-7-5-7-5---------------------| x8
>G --3---7--7-7-5-7-5---------------------|
>B --3---7--7-7-5-7-5---------------------|

>Chorus
>d----------------------------------------|
>A----------------------------------------|
>F----------------------------------------| x4
>B --3-----9-----3-----6------------------|
>G --3-----9-----3-----6------------------|
>B --3-----9-----3-----6------------------|

>Verse
>d--------------------------------------------|
>A--------------------------------------------|
>F--------------------------------------------|
>B ----55-----55-----0055--------55-----------|
>G ----55-----55-----0055--------55-----------|
>B ----55-----55-----0055--------55-----------|
intro
>d----------------------------------------|
>A----------------------------------------|
>F----------------------------------------|
>B --3---7--7-7-5-7-5---------------------| x8
>G --3---7--7-7-5-7-5---------------------|
>B --3---7--7-7-5-7-5---------------------|

>Chorus
>d----------------------------------------|
>A----------------------------------------|
>F----------------------------------------| x4
>B --3-----9-----3-----6------------------|
>G --3-----9-----3-----6------------------|
>B --3-----9-----3-----6------------------|

rap verse(starts bass i think but electric then takes over at 2:46)
>d-----------------------------------------|
>A-----------------------------------------|
>F-----------------------------------------|
>B ----5-----5-----005--------5------------|
>G ----5-----5-----005--------5------------|
>B ----5-----5-----005--------5------------|

>Chorus
>d----------------------------------------|
>A----------------------------------------|
>F----------------------------------------| x8
>B --3-----9-----3-----6------------------|
>G --3-----9-----3-----6------------------|
>B --3-----9-----3-----6------------------|

finish well that was easy dont we think children :D
any question ask me [email protected]
thanx

Like us on Facebook.....
-> Loading Time :0.0234 sec