While My Guitar Gently Weeps Tabs & Lyrics by Spineshank

While My Guitar Gently Weeps

guitar tabs lyrics

Spineshank

Album : Strictly Diesel nu metal PlayStop



Artist - Spineshank
Song - While My Guitar Gently Weeps
Album - Strictly Diesel


Tuning: Tune down one and a half steps
Characters: ~ = vibrato

Intro/verse [I look at you all..]
|--------------------------------------------|

|--------------------------------------------|
|--------------------------------------------|
|--------------------------------------------|
|-5-5-5-5-5--3-3-3-3-3--2-2-2-2-2--1-1-1-1-1-|
|-5-5-5-5-5--3-3-3-3-3--2-2-2-2-2--1-1-1-1-1-|

Last time
|--------------------------------------------|
|--------------------------------------------|
|--------------------------------------------|
|-----------------------5-5-5-5-5--7-7-7-7-7-|
|-5-5-5-5-5--3-3-3-3-3--3-3-3-3-3--5-5-5-5-5-|
|-5-5-5-5-5--3-3-3-3-3-----------------------|


Variant 1
|---------------------------15^--141514-10---|
|--------------------------------------------|
|--------------------------------------------|
|--------------------------------------------|
|-5-5-5-5-5--3-3-3-3-3--2-2-2-2-2--1-1-1-1-1-|
|-5-5-5-5-5--3-3-3-3-3--2-2-2-2-2--1-1-1-1-1-|

Variant 2
|---------------------------8^-1013101312-83-|
|--------------------------------------------|
|--------------------------------------------|
|-----------------------5-5-5-5-5--7-7-7-7-7-|
|-5-5-5-5-5--3-3-3-3-3--3-3-3-3-3--5-5-5-5-5-|
|-5-5-5-5-5--3-3-3-3-3-----------------------|

Variant 3
|---------------------------8^-10131013101315|
|--------------------------------------------|
|--------------------------------------------|
|-----------------------5-5-5-5-5--7-7-7-7-7-|
|-5-5-5-5-5--3-3-3-3-3--3-3-3-3-3--5-5-5-5-5-|
|-5-5-5-5-5--3-3-3-3-3-----------------------|

Chorus
|-3~~~5~~~0~~7~~5~~~~10~~~~~~~~~~~|
|---------------------------------|
|---------------------------------|
|---------------------------------|
|-----------------0-0-0-0-0-0-0-0-|
|-----------------0-0-0-0-0-0-0-0-|

Middle [Look at you all]
|-8~~~17~~~15-13-10-8-3--5-|
|--------------------------|
|--------------------------|
|--------------------------|
|--------------------------|
|--------------------------|

Middle continued
|-15/17-15/17-15/17-15/17----|
|----------------------------|
|----------------------------|
|----------------------------|
|----------------------------|
|----------------------------|


tab taken from http://snap.to/spineshank

Like us on Facebook.....
-> Loading Time :0.0291 sec