Weeper on the Shore Tabs & Lyrics by Amorphis

Weeper on the Shore

guitar tabs lyrics

Amorphis

Album : Elegy progressive metal PlayStop




WEEPER ON THE SHORE
As recorded by Amorphis
(From the 1996 Album ELEGY)


Transcribed by The Foreverlorn

Words and Music by Olli-Pekka Laine, Kim Rantala
Arranged by Amorphis



E5
0 2 2 x x x

G5
3 5 5 x x x

C5
8 10 10 x x x

A5
5 7 7 x x x

B5
7 9 9 x x x


Gtr I (D G C F A D) - 'Acoustics - Tomi'
Gtr II (D G C F A D) - 'Leads - Esa'
Gtr III (D G C F A D) - 'Rhythms - Tomi'
Gtr IV (D G C F A D) - 'Leads I - Kim'
Gtr V (D G C F A D) - 'Leads II - Kim'
Gtr VI (D G C F A D) - 'Leads III - Kim'


Acoustic Intro
Q=120
Em G
6/8
Gtr I
E S S S S E S S S S
|-x--x-x-x-x--x---x---x---x---x--|
|-0--0-0-0-0-(3)-(3)-(3)-(3)-(3)-|
|-0--0-0-0-0--0---0---0---0---0--|
|-2--2-2-2-2--0---0---0---0---0--|
|-2--2-2-2-2--2---2---2---2---2--|
|-0--0-0-0-0--3---3---3---3---3--|
|
| Gtr V
| H.
|--------------------------------|
|--------------------------------|
|--------------------------------|
|--------------------------------|
|--------------------------------|
|--------------------------------|


C Am Em G
E S S S S E S S S S E S S S S E S S S S
|-x--x-x-x-x-x-x-x-x-x-|-x-x-x-x-x--x---x---x---x--x--|
|-1--1-1-1-1-1-1-1-1-1-|-0-0-0-0-0-(3)-(3)-(3)-(3)(3)-|
|-0--0-0-0-0-2-2-2-2-2-|-0-0-0-0-0--0---0---0---0--0--|
|-2--2-2-2-2-2-2-2-2-2-|-2-2-2-2-2--0---0---0---0--0--|
|-3--3-3-3-3-0-0-0-0-0-|-2-2-2-2-2--2---2---2---2--2--|
|----------------------|-0-0-0-0-0--3---3---3---3--3--|
|
| H. H E E
|----------------------|------------------------------|
|----------------------|-----------------------12s====|
|----------------------|------------------------------|
|----------------------|------------------------------|
|----------------------|------------------------------|
|----------------------|------------------------------|


C B5
E S S S S S S S S S S
|--x-x-x-x-x-x-x--x-x--x-x-|
|--1-1-1-1-1-0-0--x-0--0-x-|
|--0-0-0-0-0-4-4--x-4--4-x-|
|--2-2-2-2-2-4-4--x-4--4-x-|
|--3-3-3-3-3-2-2--x-2--2-x-|
|--------------------------|
|
| H E E
|--------------------------|
|-10------------------10---|
|----------------12--------|
|--------------------------|
|--------------------------|
|--------------------------|


Em G C Am
E S S S S E S S S S E S S S S E S S S S
|--x-x-x--x--x--x---x---x---x---x--|--x-x-x--x-x--x-x-x--x-x-|
|--0-0-0--0--0-(3)-(3)-(3)-(3)-(3)-|--1-1-1--1-1--1-1-1--1-1-|
|--0-0-0--0--0--0---0---0---0---0--|--0-0-0--0-0--2-2-2--2-2-|
|--2-2-2--2--2--0---0---0---0---0--|--2-2-2--2-2--2-2-2--2-2-|
|--2-2-2--2--2--2---2---2---2---2--|--3-3-3--3-3--0-0-0--0-0-|
|--0-0-0--0--0--3---3---3---3---3--|-------------------------|
|
| E E +H Q E Q E
|----------------------------------|-------------------------|
|-12-------------------------------|-12-----13---12-----10---|
|----9---(9)-----------------------|-------------------------|
|----------------------------------|-------------------------|
|----------------------------------|-------------------------|
|----------------------------------|-------------------------|


Em G
Gtr I
E S S S S E S S S S
|--x--x-x-x-x--x---x---x---x---x--|
|--0--0-0-0-0-(3)-(3)-(3)-(3)-(3)-|
|--0--0-0-0-0--0---0---0---0---0--|
|--2--2-2-2-2--0---0---0---0---0--|
|--2--2-2-2-2--2---2---2---2---2--|
|--0--0-0-0-0--3---3---3---3---3--|
|
| Gtr V
| H.
|---------------------------------|
|-12------------------------------|
|---------------------------------|
|---------------------------------|
|---------------------------------|
|---------------------------------|
|
| Gtrs II, III
| H.
|---------------------------------|
|---------------------------------|
|---------------------------------|
|---------------------------------|
|---------------------------------|
|---------------------------------|


C B5
E S S S S S S S S S S
|---x-------x---x---x---x----x---x---x---x---x---x---|
|---1-------1---1---1---1----0---0---x---0---0---x---|
|---0-------0---0---0---0----4---4---x---4---4---x---|
|---2-------2---2---2---2----4---4---x---4---4---x---|
|---3-------3---3---3---3----2---2---x---2---2---x---|
|----------------------------------------------------|
|
| +Q. Q E
|---------------------------19\----------------------|
|-(12)----------------------19\----------------------|
|---------------------------20\----------------------|
|----------------------------------------------------|
|----------------------------------------------------|
|----------------------------------------------------|
|
| TPTPTPTPTPTPTPTPTPTPTPTP TPTPTPTPTPTPTPTPTPTPTPTP
| T T T T T T T T T T T T T T T T T T T T T T T T
|----------------------------------------------------|
|----------------------------------------------------|
|----------------------------------------------------|
|----------------------------------------------------|
|----------------------------------------------------|
|---xSxSxSxSxSxSxSxSxSxSxSxS=xSxSxSxSxSxSxSxSxSxSxSx-|


Theme
$
E5 G5 C5 A5
Gtr III
E. S E E. S E E. E. E. E.
| | | | | | | | | |
/ / / / / / / / / /

Gtr II
|---3---|
E. S E E S S S E E. E. E E E
||------------------------------------|----------------------------|
||o-----------------------------------|----------------------------|
||---16--------17-16h17p==16----------|----------------------------|
||-------17------------------17-------|----------------------------|
||o---------19------------------------|-19--17---------------------|
||------------------------------------|---------20--19----------17-|
|
| Gtr IV
| |---3---| |--3--| |---3----|
| E. S E E S S S S S S E. E. E S S S E
||--/19--------20p19h20---19-17h19p17-|----------------------------|
||o------20---------------------------|-17--15---------------------|
||----------21------------------------|---------17--16h17p===16-14-|
||------------------------------------|----------------------------|
||o-----------------------------------|----------------------------|
||------------------------------------|----------------------------|


To Coda
E5 G5 C5 B5
E. S E E. S E E. E. E E E
| | | | | | | | | | |
/ / / / / / / / / / /

|---3---|
E. S E E S S S E E. E. E E E
|------------------------------------|-----------------------||
|------------------------------------|----------------------o||
|--16--------17--16h17p==16----------|-----------------------||
|------17-------------------17-------|-----17--16-17-19------||
|---------19-------------------------|-19-------------------o||
|------------------------------------|-----------------------||
|
| |---3---| |--3--|
| E. S E E S S S S S S E. E. E E S S
|-/19--------20--19h20p==19-17h19p17-|-----15--14-15-17s19---||
|------20----------------------------|-17-------------------o||
|---------21-------------------------|-----------------------||
|------------------------------------|-----------------------||
|------------------------------------|----------------------o||
|------------------------------------|-----------------------||


Verse
Em G C Am
Gtr II
H. +H.
|---------------------------------|------------------------|
|-12------------------------------|-(12)-------------------|
|---------------------------------|------------------------|
|---------------------------------|------------------------|
|---------------------------------|------------------------|
|---------------------------------|------------------------|
|
| Gtr I
| E S S S S E S S S S E S S S S E S S S S
|--x--x-x-x-x--x---x---x---x---x--|---x--x-x-x-x-x-x-x-x-x-|
|--0--0-0-0-0-(3)-(3)-(3)-(3)-(3)-|---1--1-1-1-1-1-1-1-1-1-|
|--0--0-0-0-0--0---0---0---0---0--|---0--0-0-0-0-2-2-2-2-2-|
|--2--2-2-2-2--0---0---0---0---0--|---2--2-2-2-2-2-2-2-2-2-|
|--2--2-2-2-2--2---2---2---2---2--|---3--3-3-3-3-0-0-0-0-0-|
|--0--0-0-0-0--3---3---3---3---3--|------------------------|


Em G
+Q. +E Q
|-------------------------------------|
|-(12)---------(12)\------------------|
|-------------------------------------|
|-------------------------------------|
|-------------------------------------|
|-------------------------------------|
|
| E S S S S E S S S S
|---x--x-x-x-x---x----x---x---x---x---|
|---0--0-0-0-0--(3)--(3)-(3)-(3)-(3)--|
|---0--0-0-0-0---0----0---0---0---0---|
|---2--2-2-2-2---0----0---0---0---0---|
|---2--2-2-2-2---2----2---2---2---2---|
|---0--0-0-0-0---3----3---3---3---3---|


C B5
E s S s S s S s S s S
|---------------------------------------------------|
|---------------------------------------------------|
|---16-(16)-(16)-(16)-------------------------------|
|------------14--(14)-(14)-(14)--14--(14)-(14)-(14)-|
|----------------------17--(17)-(17)-(17)--17--(17)-|
|---------------------------------------------------|
|
| E S S S S S S S S S S
|-x--x---x----x----x----x----x----x----x----x----x--|
|-1--1---1----1----1----0----0----x----0----0----x--|
|-0--0---0----0----0----4----4----x----4----4----x--|
|-2--2---2----2----2----4----4----x----4----4----x--|
|-3--3---3----3----3----2----2----x----2----2----x--|
|---------------------------------------------------|


Em G C Am
Q +E Q. E a E E E E E
|------------------------------------|------------------------------|
|------------------------------------|------------------------------|
|------------------------------------|------------------------------|
|-14-----(14)\-----------------------|------------------------------|
|------------------------------------|---12p10----------------10----|
|------------------------------------|-----------12---10-12---------|
|
| E S S S S E S S S S E S S S S E S S S S
|--x-x-x---x---x--x---x---x---x---x--|-x-----x-x--x-x--x--x-x--x-x--|
|--0-0-0---0---0-(3)-(3)-(3)-(3)-(3)-|-1-----1-1--1-1--1--1-1--1-1--|
|--0-0-0---0---0--0---0---0---0---0--|-0-----0-0--0-0--2--2-2--2-2--|
|--2-2-2---2---2--0---0---0---0---0--|-2-----2-2--2-2--2--2-2--2-2--|
|--2-2-2---2---2--2---2---2---2---2--|-3-----3-3--3-3--0--0-0--0-0--|
|--0-0-0---0---0--3---3---3---3---3--|------------------------------|


Em G C B5
H. +Q +E Q s S
|---------------------------------|----------------------------------|
|---------------------------------|----------------------------------|
|---------------------------------|----------------------------------|
|---------------------------------|--------------------------12-(12)-|
|---------------------------------|----------------------------------|
|-12------------------------------|-(12)-----(12)\-------------------|
|
| E S S S S E S S S S E S S S S S S S S S S
|--x--x-x-x-x--x---x---x---x---x--|---x--x-x---x---x-x-x-x-x--x---x--|
|--0--0-0-0-0-(3)-(3)-(3)-(3)-(3)-|---1--1-1---1---1-0-0-x-0--0---x--|
|--0--0-0-0-0--0---0---0---0---0--|---0--0-0---0---0-4-4-x-4--4---x--|
|--2--2-2-2-2--0---0---0---0---0--|---2--2-2---2---2-4-4-x-4--4---x--|
|--2--2-2-2-2--2---2---2---2---2--|---3--3-3---3---3-2-2-x-2--2---x--|
|--0--0-0-0-0--3---3---3---3---3--|----------------------------------|


Em G
s S E +E Q.
|-------------------------------------------|
|-------------------------------------------|
|--12--(12)-9---(9)\------------------------|
|-(12)-(12)---------------------------------|
|-------------------------------------------|
|-------------------------------------------|
|
| E S S S S E S S S S
|---x-------x-x--x---x--x---x---x---x---x---|
|---0-------0-0--0---0-(3)-(3)-(3)-(3)-(3)--|
|---0-------0-0--0---0--0---0---0---0---0---|
|---2-------2-2--2---2--0---0---0---0---0---|
|---2-------2-2--2---2--2---2---2---2---2---|
|---0-------0-0--0---0--3---3---3---3---3---|


C Am
Q s S s S s S S s
|--------------------------------------------|
|----------------10--(10)-(10)-(10)----------|
|-------12-(12)-(12)-(12)--12--(12)-(12)(12)-|
|------------------------------------14p=12--|
|--------------------------------------------|
|--------------------------------------------|
|
| E S S S S E S S S S
|-x-x-x--x---x----x---------x----x----x---x--|
|-1-1-1--1---1----1---------1----1----1---1--|
|-0-0-0--0---0----2---------2----2----2---2--|
|-2-2-2--2---2----2---------2----2----2---2--|
|-3-3-3--3---3----0---------0----0----0---0--|
|--------------------------------------------|


Em G C B5
S S S S H H s S s S
|---------------------------------------------|---------------------------------|
|---------------------------------------------|---------------------------------|
|-(12)-(12)-(12)-(12)-------------------------|---------------12-(12)-(12)-(12)-|
|-(12)-(12)-(12)-(12)-------------------------|------------------------14--(14)-|
|---------------------------------------------|---------------------------------|
|---------------------------------------------|---------------------------------|
|
| E S S S S E S S S S E S S S S S S S S S S
|---x---------x----x--x-x--x---x---x---x---x--|-x-x-x-x-x-x-x--x---x----x----x--|
|---0---------0----0--0-0-(3)-(3)-(3)-(3)-(3)-|-1-1-1-1-1-0-0--x---0----0----x--|
|---0---------0----0--0-0--0---0---0---0---0--|-0-0-0-0-0-4-4--x---4----4----x--|
|---2---------2----2--2-2--0---0---0---0---0--|-2-2-2-2-2-4-4--x---4----4----x--|
|---2---------2----2--2-2--2---2---2---2---2--|-3-3-3-3-3-2-2--x---2----2----x--|
|---0---------0----0--0-0--3---3---3---3---3--|---------------------------------|


Em G C Am
E +Q Q. H.
|------------------------------------|----------------------|
|------------------------------------|----------------------|
|------------------------------------|----------------------|
|-14-(14)\---------------------------|----------------------|
|------------------------------------|----------------------|
|------------------------------------|----------------------|
|
| E S S S S E S S S S E S S S S E S S S S
|--x---x---x-x-x--x---x---x---x---x--|-x--x-x-x-x-x-x-x-x-x-|
|--0---0---0-0-0-(3)-(3)-(3)-(3)-(3)-|-1--1-1-1-1-1-1-1-1-1-|
|--0---0---0-0-0--0---0---0---0---0--|-0--0-0-0-0-2-2-2-2-2-|
|--2---2---2-2-2--0---0---0---0---0--|-2--2-2-2-2-2-2-2-2-2-|
|--2---2---2-2-2--2---2---2---2---2--|-3--3-3-3-3-0-0-0-0-0-|
|--0---0---0-0-0--3---3---3---3---3--|----------------------|


Em G C B5
Gtr V
H. Q. E +E E
|--------------------------------|-20----------19---(19)\-------|
|--------------------------------|-20----------19---(19)\-------|
|--------------------------------|-21----------20---(20)\-------|
|--------------------------------|------------------------------|
|--------------------------------|------------------------------|
|--------------------------------|------------------------------|
|
| E S S S S E S S S S E S S S S S S S S S S
|-x--x-x-x-x--x---x---x---x---x--|--x--x-x-x-x--x-x---x---x-x-x-|
|-0--0-0-0-0-(3)-(3)-(3)-(3)-(3)-|--1--1-1-1-1--0-0---x---0-0-x-|
|-0--0-0-0-0--0---0---0---0---0--|--0--0-0-0-0--4-4---x---4-4-x-|
|-2--2-2-2-2--0---0---0---0---0--|--2--2-2-2-2--4-4---x---4-4-x-|
|-2--2-2-2-2--2---2---2---2---2--|--3--3-3-3-3--2-2---x---2-2-x-|
|-0--0-0-0-0--3---3---3---3---3--|------------------------------|


Interlude
A5 G5A5 G5 E5 D5E5 D5
5/4
Gtrs II, III
E S E S E E E S E S E E E S E S E E E S E S E E
||--------------------------|---------------------------||
||o-------------------------|--------------------------o||
||--------------------------|-9---9---7-9-9---9---9-7---||
||--7---7---5-7-7---7---7-5-|-9-x-9-x-7-9-9-x-9-x-9-7---||
||o-7-x-7-x-5-7-7-x-7-x-7-5-|-7-x-7-x-5-7-7-x-7-x-7-5--o||
||--5-x-5-x-3-5-5-x-5-x-5-3-|---------------------------||


Interlude Lead
A5 G5 A5 G5
Gtr V
S S S S S S S S S S E +S E +S E E
|-------------10-12-10--------------------------10-12-|
|-12-10-12-13----------13-12-10-12-(12)-13-(13)-------|
|-----------------------------------------------------|
|-----------------------------------------------------|
|-----------------------------------------------------|
|-----------------------------------------------------|
|
| Gtr II
| S S S S S S S S S S E +S E +S E E
|-----------------------------------------------------|
|-----------------------------------------------------|
|--------------7--9--7---------------------------7--9-|
|--9--7--9-10----------10--9--7--9--(9)-10-(10)-------|
|-----------------------------------------------------|
|-----------------------------------------------------|
|
| Gtr III
| E S E S E E E S E S E E
|-----------------------------------------------------|
|-----------------------------------------------------|
|-----------------------------------------------------|
|--7--------7--------5-----7-----7-------7-------7--5-|
|--7-----x--7-----x--5-----7-----7---x---7---x---7--5-|
|--5-----x--5-----x--3-----5-----5---x---5---x---5--3-|


E5 D5 E5 D5
S S S S S S S S S S E +S E +S E E
|-------------10-12-10------------------------------|
|-12-10-12-13----------13-12-10-12-(12)-10-(10)-9---|
|-------------------------------------------------9-|
|---------------------------------------------------|
|---------------------------------------------------|
|---------------------------------------------------|
|
| S S S S S S S S S S E +S E +S E E
|---------------------------------------------------|
|---------------------------------------------------|
|--------------7--9--7------------------------------|
|--9--7--9-10----------10--9--7--9--(9)--7--(7)-6---|
|-------------------------------------------------7-|
|---------------------------------------------------|
|
| E S E S E E E S E S E E
|---------------------------------------------------|
|---------------------------------------------------|
|--9--------9--------7-----9-----9-------9------9-7-|
|--9-----x--9-----x--7-----9-----9---x---9---x--9-7-|
|--7-----x--7-----x--5-----7-----7---x---7---x--7-5-|
|---------------------------------------------------|


A5 G5 A5 G5
Gtr V
S S S S S S S S S S E +S E +S E E
|-------------10-12-10--------------------------10-12-|
|-12-10-12-13----------13-12-10-12-(12)-13-(13)-------|
|-----------------------------------------------------|
|-----------------------------------------------------|
|-----------------------------------------------------|
|-----------------------------------------------------|
|
| Gtr II
| S S S S S S S S S S E +S E +S E E
|-----------------------------------------------------|
|-----------------------------------------------------|
|--------------7--9--7---------------------------7--9-|
|--9--7--9-10----------10--9--7--9--(9)-10-(10)-------|
|-----------------------------------------------------|
|-----------------------------------------------------|
|
| Gtr III
| E S E S E E E S E S E E
|-----------------------------------------------------|
|-----------------------------------------------------|
|-----------------------------------------------------|
|--7--------7--------5-----7-----7-------7-------7--5-|
|--7-----x--7-----x--5-----7-----7---x---7---x---7--5-|
|--5-----x--5-----x--3-----5-----5---x---5---x---5--3-|


D.S. al Coda
B5 A5
S S S S S S S +S H.
|-------------10-12-10--(10)-----------------------------|
|-12-10-12-13--------------------------------------------|
|--------------------------------------------------------|
|--------------------------------------------------------|
|--------------------------------------------------------|
|--------------------------------------------------------|
|
| S S S S S S +S +S +S S S S +S S +S S +Q
|--------------------------------------------------------|
|----------------------------------8---------------------|
|--------------7--9-(9)--(9)-(9)-9---9-(9)-9-(9)-9-(9)---|
|--9--7--9-10--------------------------------------------|
|--------------------------------------------------------|
|--------------------------------------------------------|
|
| E S E S E E E S E S E E
|--------------------------------------------------------|
|--------------------------------------------------------|
|--------------------------------------------------------|
|--9--------9--------9--------9----9-------9--------9--7-|
|--9-----x--9-----x--9--------9----9----x--9-----x--9--7-|
|--7-----x--7-----x--7--------7----7----x--7-----x--7--5-|


Verse
&
Em G
6/8
Gtr II
H.
|---------------------------------|
|-12------------------------------|
|---------------------------------|
|---------------------------------|
|---------------------------------|
|---------------------------------|
|
| Gtr I
| E S S S S E S S S S
|--x--x-x-x-x--x---x---x---x---x--|
|--0--0-0-0-0-(3)-(3)-(3)-(3)-(3)-|
|--0--0-0-0-0--0---0---0---0---0--|
|--2--2-2-2-2--0---0---0---0---0--|
|--2--2-2-2-2--2---2---2---2---2--|
|--0--0-0-0-0--3---3---3---3---3--|


C Am Em G
+H +E +E H.
|-------------------------------|--------------------------------|
|-(12)-----------(12)---(12)\---|--------------------------------|
|-------------------------------|--------------------------------|
|-------------------------------|--------------------------------|
|-------------------------------|--------------------------------|
|-------------------------------|--------------------------------|
|
| E S S S S E S S S S E S S S S E S S S S
|---x--x-x-x-x-x---x--x---x---x-|-x--x-x-x-x--x---x---x---x---x--|
|---1--1-1-1-1-1---1--1---1---1-|-0--0-0-0-0-(3)-(3)-(3)-(3)-(3)-|
|---0--0-0-0-0-2---2--2---2---2-|-0--0-0-0-0--0---0---0---0---0--|
|---2--2-2-2-2-2---2--2---2---2-|-2--2-2-2-2--0---0---0---0---0--|
|---3--3-3-3-3-0---0--0---0---0-|-2--2-2-2-2--2---2---2---2---2--|
|-------------------------------|-0--0-0-0-0--3---3---3---3---3--|


C B5 Em G
H. H.
|------------------------|--------------------------------|
|------------------------|--------------------------------|
|------------------------|--------------------------------|
|------------------------|--------------------------------|
|------------------------|--------------------------------|
|------------------------|--------------------------------|
|
| E S S S S S S S S S S E S S S S E S S S S
|-x--x-x-x-x-x-x-x-x-x-x-|-x--x-x-x-x--x---x---x---x---x--|
|-1--1-1-1-1-0-0-x-0-0-x-|-0--0-0-0-0-(3)-(3)-(3)-(3)-(3)-|
|-0--0-0-0-0-4-4-x-4-4-x-|-0--0-0-0-0--0---0---0---0---0--|
|-2--2-2-2-2-4-4-x-4-4-x-|-2--2-2-2-2--0---0---0---0---0--|
|-3--3-3-3-3-2-2-x-2-2-x-|-2--2-2-2-2--2---2---2---2---2--|
|------------------------|-0--0-0-0-0--3---3---3---3---3--|


C Am
E E E Q.
|---------------------------|
|------------------------|
|------------------------|
|------------------------|
|---------------------------|
|---------------------------|
|
| E S S S S E S S S S
|-x--x--x--x--x--x--x-x-x-x-|
|-1--1--1--1--1--1--1-1-1-1-|
|-0--0--0--0--0--2--2-2-2-2-|
|-2--2--2--2--2--2--2-2-2-2-|
|-3--3--3--3--3--0--0-0-0-0-|
|---------------------------|


Em G C B5
H. +H.
|------------------------------|-()---------------------|
|---------------------------------|---------------------------|
|---------------------------------|---------------------------|
|---------------------------------|---------------------------|
|---------------------------------|---------------------------|
|---------------------------------|---------------------------|
|
| E S S S S E S S S S E S S S S S S S S S S
|--x--x-x-x-x--x---x---x---x---x--|---x---x-x-x-x-x-x-x-x-x-x-|
|--0--0-0-0-0-(3)-(3)-(3)-(3)-(3)-|---1---1-1-1-1-0-0-x-0-0-x-|
|--0--0-0-0-0--0---0---0---0---0--|---0---0-0-0-0-4-4-x-4-4-x-|
|--2--2-2-2-2--0---0---0---0---0--|---2---2-2-2-2-4-4-x-4-4-x-|
|--2--2-2-2-2--2---2---2---2---2--|---3---3-3-3-3-2-2-x-2-2-x-|
|--0--0-0-0-0--3---3---3---3---3--|---------------------------|


Em G
+H.
|-()-----------------------------|
|-----------------------------------|
|-----------------------------------|
|-----------------------------------|
|-----------------------------------|
|-----------------------------------|
|
| E S S S S E S S S S
|---x---x-x-x-x--x---x---x---x---x--|
|---0---0-0-0-0-(3)-(3)-(3)-(3)-(3)-|
|---0---0-0-0-0--0---0---0---0---0--|
|---2---2-2-2-2--0---0---0---0---0--|
|---2---2-2-2-2--2---2---2---2---2--|
|---0---0-0-0-0--3---3---3---3---3--|


C Am Em G C B5
Gtr I
E S S S S E S S S S E S S S S E S S S S E S S S S S S S S S S
|-x-x-x-x-x-x-x-x-x-x-|-x-x-x-x-x--x---x---x---x---x--|-x-x-x-x-x-x-x-x-x-x-x-|
|-1-1-1-1-1-1-1-1-1-1-|-0-0-0-0-0-(3)-(3)-(3)-(3)-(3)-|-1-1-1-1-1-0-0-x-0-0-x-|
|-0-0-0-0-0-2-2-2-2-2-|-0-0-0-0-0--0---0---0---0---0--|-0-0-0-0-0-4-4-x-4-4-x-|
|-2-2-2-2-2-2-2-2-2-2-|-2-2-2-2-2--0---0---0---0---0--|-2-2-2-2-2-4-4-x-4-4-x-|
|-3-3-3-3-3-0-0-0-0-0-|-2-2-2-2-2--2---2---2---2---2--|-3-3-3-3-3-2-2-x-2-2-x-|
|---------------------|-0-0-0-0-0--3---3---3---3---3--|-----------------------|


Em G C Am
E S S S S E S S S S E S S S S E S S S S
|-x-x-x-x-x--x---x---x---x---x--|-x-x-x-x-x-x-x-x-x-x-|
|-0-0-0-0-0-(3)-(3)-(3)-(3)-(3)-|-1-1-1-1-1-1-1-1-1-1-|
|-0-0-0-0-0--0---0---0---0---0--|-0-0-0-0-0-2-2-2-2-2-|
|-2-2-2-2-2--0---0---0---0---0--|-2-2-2-2-2-2-2-2-2-2-|
|-2-2-2-2-2--2---2---2---2---2--|-3-3-3-3-3-0-0-0-0-0-|
|-0-0-0-0-0--3---3---3---3---3--|---------------------|


Em G C B5
E S S S S E S S S S E S S S S S S S S S S
|-x-x-x-x-x--x---x---x---x---x--|-x-x-x-x-x-x-x-x-x-x-x-|
|-0-0-0-0-0-(3)-(3)-(3)-(3)-(3)-|-1-1-1-1-1-0-0-x-0-0-x-|
|-0-0-0-0-0--0---0---0---0---0--|-0-0-0-0-0-4-4-x-4-4-x-|
|-2-2-2-2-2--0---0---0---0---0--|-2-2-2-2-2-4-4-x-4-4-x-|
|-2-2-2-2-2--2---2---2---2---2--|-3-3-3-3-3-2-2-x-2-2-x-|
|-0-0-0-0-0--3---3---3---3---3--|-----------------------|


Interlude Lead
A5 G5 A5 G5
5/4
Gtr V
S S S S S S S S S S E +S E +S E E
||--------------10-12-10--------------------------10-12-|
||o-12-10-12-13----------13-12-10-12-(12)-13-(13)-------|
||------------------------------------------------------|
||------------------------------------------------------|
||o-----------------------------------------------------|
||------------------------------------------------------|
|
| Gtr II
| S S S S S S S S S S E +S E +S E E
||------------------------------------------------------|
||o-----------------------------------------------------|
||---------------7--9--7---------------------------7--9-|
||---9--7--9-10----------10--9--7--9--(9)-10-(10)-------|
||o-----------------------------------------------------|
||------------------------------------------------------|
|
| Gtr III
| E S E S E E E S E S E E
||------------------------------------------------------|
||o-----------------------------------------------------|
||------------------------------------------------------|
||---7--------7--------5-----7-----7-------7-------7--5-|
||o--7-----x--7-----x--5-----7-----7---x---7---x---7--5-|
||---5-----x--5-----x--3-----5-----5---x---5---x---5--3-|


E5 D5 E5 D5
S S S S S S S S S S E +S E +S E E 3x
|-------------10-12-10-------------------------------||
|-12-10-12-13----------13-12-10-12-(12)-10-(10)-9---o||
|-------------------------------------------------9--||
|----------------------------------------------------||
|---------------------------------------------------o||
|----------------------------------------------------||
|
| S S S S S S S S S S E +S E +S E E 3x
|----------------------------------------------------||
|---------------------------------------------------o||
|--------------7--9--7-------------------------------||
|--9--7--9-10----------10--9--7--9--(9)--7--(7)-6----||
|-------------------------------------------------7-o||
|----------------------------------------------------||
|
| E S E S E E E S E S E E 3x
|----------------------------------------------------||
|---------------------------------------------------o||
|--9--------9--------7-----9-----9-------9------9-7--||
|--9-----x--9-----x--7-----9-----9---x---9---x--9-7--||
|--7-----x--7-----x--5-----7-----7---x---7---x--7-5-o||
|----------------------------------------------------||


A5 G5 A5 G5
Gtr V
S S S S S S S S S S E +S E +S E E
|-------------10-12-10--------------------------10-12-|
|-12-10-12-13----------13-12-10-12-(12)-13-(13)-------|
|-----------------------------------------------------|
|-----------------------------------------------------|
|-----------------------------------------------------|
|-----------------------------------------------------|
|
| Gtr II
| S S S S S S S S S S E +S E +S E E
|-----------------------------------------------------|
|-----------------------------------------------------|
|--------------7--9--7---------------------------7--9-|
|--9--7--9-10----------10--9--7--9--(9)-10-(10)-------|
|-----------------------------------------------------|
|-----------------------------------------------------|
|
| Gtr III
| E S E S E E E S E S E E
|-----------------------------------------------------|
|-----------------------------------------------------|
|-----------------------------------------------------|
|--7--------7--------5-----7-----7-------7-------7--5-|
|--7-----x--7-----x--5-----7-----7---x---7---x---7--5-|
|--5-----x--5-----x--3-----5-----5---x---5---x---5--3-|


E5 D5 E5 D5
S S S S S S S S S S E H
|-------------10-12-10------------------------|
|-12-10-12-13----------13-12-10---------------|
|---------------------------------------------|
|---------------------------------------------|
|---------------------------------------------|
|---------------------------------------------|
|
| S S S S S S S S S S E +H
|---------------------------------------------|
|---------------------------------------------|
|--------------7--9--7------------------------|
|--9--7--9-10----------10--9--7-9-(9)---------|
|---------------------------------------------|
|---------------------------------------------|
|
| E S E S E E E S E S E E
|---------------------------------------------|
|---------------------------------------------|
|--9--------9--------7-----9----9-----9---9-7-|
|--9-----x--9-----x--7-----9----9--x--9-x-9-7-|
|--7-----x--7-----x--5-----7----7--x--7-x-7-5-|
|---------------------------------------------|


Guitar Solo #1
A5 D5/A
6/8
Gtr II
|-3--|
E S S S S S S S +E S E S S S S S S S e e
|---------------------------------|---------------------------|
|---------------------------------|---------------------------|
|---12-11--9--12------------------|---12-11-9----9h11p9-------|
|----------------12s14-14-(14)\---|-----------12--------------|
|---------------------------------|---------------------12-10-|
|---------------------------------|---------------------------|
|
| Gtr III
| PM|
| E E +H H E E
|---------------------------------|---------------------------|
|---------------------------------|---------------------------|
|---------------------------------|---------------------------|
|-7--7----(7)---------------------|-7-------------------------|
|-7--7----(7)---------------------|-7--------------------5--5-|
|-5--5----(5)---------------------|-5--------------------5--5-|


E5 E7 E5
~~~~~~~~~~~~
|-3--|
S S S E E E Q +H E +E
|-----------------------|-----------------|
|-----------------------|-----------------|
|-----------------------|---------2b3-(2)-|
|-----------------------|-----------------|
|-9h10p9----9-----------|-----------------|
|--------12---10-[12]---|-(12)------------|
|
| H +E E H E E
|-----------------------|-----------------|
|-----------------------|-----------------|
|-----------------------|--(7)------------|
|-2---------------(2)-2-|--(6)----2----2--|
|-2---------------(2)-2-|---7-----2----2--|
|-0---------------(0)-0-|---0-----0----0--|


A5 D5/A
S +S S E S E E S S E S +S E E E E
|-----------------------|-------------/3-----|
|-----------------------|-------------/3-----|
|-2b4-(2)-2-0-----------|----------------0-2-|
|-------------2-0---0---|-0------------------|
|-----------------2---2-|-----------0--------|
|-----------------------|---3b5-(3)----------|
|
| PM|
| H. H E E
|-----------------------|--------------------|
|-----------------------|--------------------|
|-----------------------|--------------------|
|-7---------------------|-7------------------|
|-7---------------------|-7--------------5-5-|
|-5---------------------|-5--------------5-5-|


E5
E S E S E S E S Q Q e e
|---------------------|---------------|
|---------------------|---------------|
|-7---7---7-----7-----|-9\-----14-12--|
|---7---7----7------7-|---------------|
|---------------------|---------------|
|---------------------|---------------|
|
| H +E E H E E
|---------------------|---------------|
|---------------------|---------------|
|---------------------|-9-------------|
|-2---------(2)---2---|-9-------2--2--|
|-2---------(2)---2---|-7-------2--2--|
|-0---------(0)---0---|-0-------0--0--|


A5 D5/A
|--3--| |--3--|
S S S S E S E e e S S S S E S E e e
|----------------------------|----------------------------|
|----------------------------|----------------------------|
|-11h12p11----11-------14-12-|-11h12p11----11-------------|
|----------14----14-12-------|----------14----14-12-------|
|----------------------------|----------------------12-10-|
|----------------------------|----------------------------|
|
| PM|
| H. H E E
|----------------------------|----------------------------|
|----------------------------|----------------------------|
|----------------------------|----------------------------|
|--7-------------------------|--7-------------------------|
|--7-------------------------|--7--------------------5--5-|
|--5-------------------------|--5--------------------5--5-|


E5
~~~~~
|-3--|
S S S E S S S S E E Q +E E E E
|-----------------------------|---------------------|
|-----------------------------|---------------------|
|-----------------------------|-----------0---------|
|-----------------------------|-----------0----12---|
|-12s10-10-9-10-9h10p9--------|-----------0-12------|
|----------------------10--12-|-12--(12)\-----------|
|
| H +E E H E E
|-----------------------------|---------------------|
|-----------------------------|---------------------|
|-----------------------------|--9------------------|
|--2-------------------(2)--2-|--9-----------2--2---|
|--2-------------------(2)--2-|--7-----------2--2---|
|--0-------------------(0)--0-|--0-----------0--0---|


A5 D5/A
~~~~~~~~~~~~~~~~~~
E E E E E E E E E E E S S
|--------------------|----------------------|
|--------------------|----------------------|
|--------------------|----------12-14-12-14-|
|-----12----12----12-|-14-12-14-------------|
|-12-----12----12----|----------------------|
|--------------------|----------------------|
|
| PM|
| H. H E E
|--------------------|----------------------|
|--------------------|----------------------|
|--------------------|----------------------|
|--7-----------------|--7-------------------|
|--7-----------------|--7-----------5--5----|
|--5-----------------|--5-----------5--5----|


B5 D5
~~~~~~~~~~~~~~~~~~~~~
S +S S S S S S S S S S +S E E E E E E
|--------------------------------------------|-----------------------|
|--------------------------------------------|-----------------------|
|-14b15-(14)-12-14-11-12-12-11---------------|-----------------------|
|------------------------------14-12-14-(14)-|-12-14---12---14-12-14-|
|--------------------------------------------|-----------------------|
|--------------------------------------------|-----------------------|
|
| PM---| PM---| PM--|
| E S S S S E S S S S E S S S S E E E
|--------------------------------------------|-----------------------|
|--------------------------------------------|-----------------------|
|--------------------------------------------|-----------------------|
|--9----------------------9------------------|--9-----------12-12-12-|
|--9----------9--9--9-----9-----9--9--9------|--9--9-9--9---12-12-12-|
|--7----------7--7--7-----7-----7--7--7------|--7--7-7--7---10-10-10-|


Interlude #2
E5
S +S S +S S +S S +S +Q
|-12----(12)-12----(12)-12----(12)-12----(12)--------|
|-15b17-(15)-15b17-(15)-15b17-(15)-15b17-(15)-(15)\--|
|----------------------------------------------------|
|----------------------------------------------------|
|----------------------------------------------------|
|----------------------------------------------------|
|
| E E E Q.
|----------------------------------------------------|
|----------------------------------------------------|
|----------------------------------------------------|
|--2----------2----------2---------------------------|
|--2----------2----------2---------------------------|
|--0----------0----------0---------------------------|


B5 C5 D#5
Q. E E E E E E Q. Q. E E E
|------------|------------|------------|
|------------|------------|------------|
|------4-4-4-|-5-5-5------|------8-8-8-|
|------4-4-4-|-5-5-5------|------8-8-8-|
|------2-2-2-|-3-3-3------|------6-6-6-|
|------------|------------|------------|
|
| Q. E E E E E E Q. Q. E E E
|------------|------------|------------|
|------------|------------|------------|
|------4-4-4-|-5-5-5------|------8-8-8-|
|------4-4-4-|-5-5-5------|------8-8-8-|
|------2-2-2-|-3-3-3------|------6-6-6-|
|------------|------------|------------|


E5 B5 C5 D#5
Gtrs II, III
E E E Q. Q. E E E E E E Q. Q. E E E
|------------|------------|------------|------------|
|------------|------------|------------|------------|
|------------|------4-4-4-|-5-5-5------|------8-8-8-|
|-2-2-2------|------4-4-4-|-5-5-5------|------8-8-8-|
|-2-2-2------|------2-2-2-|-3-3-3------|------6-6-6-|
|-0-0-0------|------------|------------|------------|


Interlude #2 Lead
$$
E5 B5 C5 D#5
Gtrs II, VI
PM----------------------------------------------------------|
|-3--|
E E E E E E E E E Q. E S S S E E E E E E E Q. 3x
||---------------|---------------|---------------------|----------------||
||o-------8--7---|------7--------|---------------------|--------7------o||
||--9----------9-|-7--9----------|-------------9--7----|----8-9---------||
||----9----------|--------9------|-10-9h10p9-7------10-|-9--------------||
||o-----7--------|---------------|---------------------|---------------o||
||---------------|---------------|---------------------|----------------||
|
| Gtr III
| E E E Q. Q. E E E E E E Q. Q. E E E 3x
||---------------|---------------|---------------------|----------------||
||o--------------|---------------|---------------------|---------------o||
||---------------|--------4--4-4-|--5-5------5---------|--------8--8-8--||
||--2-2-2--------|--------4--4-4-|--5-5------5---------|--------8--8-8--||
||o-2-2-2--------|--------2--2-2-|--3-3------3---------|--------6--6-6-o||
||--0-0-0--------|---------------|---------------------|----------------||


To Dbl. Coda
E5 B5 C5 A5 B5 D#5
PM--------------------------------------------------------|
|-3--|
E E E E E E E E E Q. E S S S E E E E E E E Q.
|--------------|---------------|--------------------|--------------|
|-------8--7---|------7--------|--------------------|-------7------|
|-9----------9-|-7--9----------|-------------9-7----|---8-9--------|
|---9----------|--------9------|-10-9h10p9-7-----10-|-9------------|
|-----7--------|---------------|--------------------|--------------|
|--------------|---------------|--------------------|--------------|
|
| E E E Q. Q. E E E E E E E E E E E E E E E
|--------------|---------------|--------------------|--------------|
|--------------|---------------|--------------------|--------------|
|--------------|--------4--4-4-|--5-5------5-2-2--2-|-4-4-4-8--8-8-|
|-2-2-2--------|--------4--4-4-|--5-5------5-2-2--2-|-4-4-4-8--8-8-|
|-2-2-2--------|--------2--2-2-|--3-3------3-0-0--0-|-2-2-2-6--6-6-|
|-0-0-0--------|---------------|--------------------|--------------|


Harmony Lead
E5 G5 C5 B5
Gtr VI
E E E E E E E E E Q.
|--------------------|----------------------|
|-8-------12-10------|---------10-----------|
|---9-------------12-|-11-12----------------|
|-------9------------|------------12--------|
|--------------------|----------------------|
|--------------------|----------------------|
|
| Gtr III
| E E E E E E E E E Q.
|--------------------|----------------------|
|----------8--7------|----------7-----------|
|-9----------------9-|--7--9----------------|
|---9----------------|-------------9--------|
|-------7------------|----------------------|
|--------------------|----------------------|
|
| Gtr II
| E S S E E S S E E S S E E S S E
|--------------------|----------------------|
|--------------------|----------------------|
|--------------------|--5--5-5--5--4--4-4-4-|
|-2-2-2-2--5--5-5--5-|--5--5-5--5--4--4-4-4-|
|-2-2-2-2--5--5-5--5-|--3--3-3--3--2--2-2-2-|
|-0-0-0-0--3--3-3--3-|----------------------|


C5 A5 B5 D#5
|--3---|
E S S S E E E E E E E Q.
|-------------------------|--------------------|
|----------------8-7------|---------7----------|
|--9-7h=9p==7-----------9-|---8---9------------|
|-------------10----------|-9------------------|
|-------------------------|--------------------|
|-------------------------|--------------------|
|
| |--3---|
| E S S S E E E E E E E Q.
|-------------------------|--------------------|
|-------------------------|---------7----------|
|----------------9-7------|---8---9------------|
|-10-9h10p==9--7-------10-|-9------------------|
|-------------------------|--------------------|
|-------------------------|--------------------|
|
| E S S E E S S E E S S E E S S E
|-------------------------|--------------------|
|-------------------------|--------------------|
|--5-5----5----5-2-2-2--2-|-4-4-4-4-8--8-8-8---|
|--5-5----5----5-2-2-2--2-|-4-4-4-4-8--8-8-8---|
|--3-3----3----3-0-0-0--0-|-2-2-2-2-6--6-6-6---|
|-------------------------|--------------------|


E5 G5 C5 B5
E E E E E E E E E Q.
||---------------------|----------------------|
||o-8-------12-10------|---------10-----------|
||----9-------------12-|-11-12----------------|
||--------9------------|------------12--------|
||o--------------------|----------------------|
||---------------------|----------------------|
|
| E E E E E E E E E Q.
||---------------------|----------------------|
||o----------8--7------|----------7-----------|
||--9----------------9-|--7--9----------------|
||----9----------------|-------------9--------|
||o-------7------------|----------------------|
||---------------------|----------------------|
|
| E S S E E S S E E S S E E S S E
||---------------------|----------------------|
||o--------------------|----------------------|
||---------------------|--5--5-5--5--4--4-4-4-|
||--2-2-2-2--5--5-5--5-|--5--5-5--5--4--4-4-4-|
||o-2-2-2-2--5--5-5--5-|--3--3-3--3--2--2-2-2-|
||--0-0-0-0--3--3-3--3-|----------------------|


C5 A5 B5 D#5
|--3---|
E S S S E E E E E E E E E E
|-------------------------|--------------------||
|----------------8-7------|---------7---------o||
|--9-7h=9p==7-----------9-|---8---9----8-------||
|-------------10----------|-9--------------9---||
|-------------------------|-------------------o||
|-------------------------|--------------------||
|
| |--3---|
| E S S S E E E E E E E Q.
|-------------------------|--------------------||
|-------------------------|---------7---------o||
|----------------9-7------|---8---9------------||
|-10-9h10p==9--7-------10-|-9------------------||
|-------------------------|-------------------o||
|-------------------------|--------------------||
|
| E S S E E S S E E S S E E S S E
|-------------------------|--------------------||
|-------------------------|-------------------o||
|--5-5----5----5-2-2-2--2-|-4-4-4-4-8--8-8-8---||
|--5-5----5----5-2-2-2--2-|-4-4-4-4-8--8-8-8---||
|--3-3----3----3-0-0-0--0-|-2-2-2-2-6--6-6-6--o||
|-------------------------|--------------------||


E5 G5 C5 B5
E E E E E E E E E Q.
|--------------------|----------------------|
|-8-------12-10------|---------10-----------|
|---9-------------12-|-11-12----------------|
|-------9------------|------------12--------|
|--------------------|----------------------|
|--------------------|----------------------|
|
| E E E E E E E E E Q.
|--------------------|----------------------|
|----------8--7------|----------7-----------|
|-9----------------9-|--7--9----------------|
|---9----------------|-------------9--------|
|-------7------------|----------------------|
|--------------------|----------------------|
|
| E S S E E S S E E S S E E S S E
|--------------------|----------------------|
|--------------------|----------------------|
|--------------------|--5--5-5--5--4--4-4-4-|
|-2-2-2-2--5--5-5--5-|--5--5-5--5--4--4-4-4-|
|-2-2-2-2--5--5-5--5-|--3--3-3--3--2--2-2-2-|
|-0-0-0-0--3--3-3--3-|----------------------|


D.S.S. al Dbl. Coda
C5 A5 B5 D#5
|--3---|
E S S S E E E E E E E Q.
|-------------------------|--------------------|
|----------------8-7------|---------7----------|
|--9-7h=9p==7-----------9-|---8---9------------|
|-------------10----------|-9------------------|
|-------------------------|--------------------|
|-------------------------|--------------------|
|
| |--3---|
| E S S S E E E E E E E Q.
|-------------------------|--------------------|
|-------------------------|---------7----------|
|----------------9-7------|---8---9------------|
|-10-9h10p==9--7-------10-|-9------------------|
|-------------------------|--------------------|
|-------------------------|--------------------|
|
| E S S E E S S E E S S E E S S E
|-------------------------|--------------------|
|-------------------------|--------------------|
|--5-5----5----5-2-2-2--2-|-4-4-4-4-8--8-8-8---|
|--5-5----5----5-2-2-2--2-|-4-4-4-4-8--8-8-8---|
|--3-3----3----3-0-0-0--0-|-2-2-2-2-6--6-6-6---|
|-------------------------|--------------------|


Harmony Lead #2
&&
G5 Bb5 Eb5 C5
Gtr II
|--3--|
E. S E E S S S E E. E. E E E
||------------------------------|----------------------------|
||o--15----------16-15h16p15----|----------------------------|
||---------15----------------15-|----------------------------|
||------------17----------------|-17----15-------------------|
||o-----------------------------|-------------18-17-------15-|
||------------------------------|----------------------------|
|
| Gtr IV
| |--3--| |--3--|
| E. S E E S S S E E. E. E S S S E
||--/13----------15-13h15p13----|----------------------------|
||o--------15----------------15-|-11-------------------------|
||------------15----------------|-------14----12-10h12p10----|
||------------------------------|-------------------------13-|
||o-----------------------------|----------------------------|
||------------------------------|----------------------------|
|
| Gtr III
| E S S E E E E E S S E E E E
||------------------------------|----------------------------|
||o-----------------------------|----------------------------|
||------------------------------|--8--8--8--8--5--5--------5-|
||----5--5--5--5--8--8--------8-|--8--8--8--8--5--5--------5-|
||o---5--5--5--5--8--8--------8-|--6--6--6--6--3--3--------3-|
||----3--3--3--3--6--6--------6-|----------------------------|


G5 Bb5 Eb5 D5
|--3--|
E. S E E S S S E E. E. E E E 4x
|-----------------------------|-----------------------||
|--15----------16-15h16p15----|----------------------o||
|--------15----------------15-|-------15----14-15-17--||
|-----------17----------------|-17--------------------||
|-----------------------------|----------------------o||
|-----------------------------|-----------------------||
|
| |--3--|
| E. S E E S S S E E. E. E E E 4x
|-/13----------15-13h15p13----|-------------------11--||
|--------15----------------15-|-11----15----13-15----o||
|-----------15----------------|-----------------------||
|-----------------------------|-----------------------||
|-----------------------------|----------------------o||
|-----------------------------|-----------------------||
|
| E S S E E E E E S S E E E E 4x
|-----------------------------|-----------------------||
|-----------------------------|----------------------o||
|-----------------------------|--8--8--8--8--7--7--7--||
|---5--5--5--5--8--8--------8-|--8--8--8--8--7--7--7--||
|---5--5--5--5--8--8--------8-|--6--6--6--6--5--5--5-o||
|---3--3--3--3--6--6--------6-|-----------------------||


Guitar Solo #2/Outro
G5 Bb5 Eb5 C5
Gtr II
S +S E S +S E S +S E S +S E S +S E S S E
|------------15--------------15------------15-|-------------15--------------15---------|
|-18b20-(18)------18b20-(18)----18b20-(18)----|--18b20-(18)------18b20-(18)----18p15---|
|---------------------------------------------|----------------------------------------|
|---------------------------------------------|----------------------------------------|
|---------------------------------------------|----------------------------------------|
|---------------------------------------------|----------------------------------------|
|
| Gtr V
| H. +H.
|-15------------------------------------------|-(15)-----------------------------------|
|---------------------------------------------|----------------------------------------|
|-12------------------------------------------|-(12)-----------------------------------|
|---------------------------------------------|----------------------------------------|
|---------------------------------------------|----------------------------------------|
|---------------------------------------------|----------------------------------------|
|
| Gtr III
| E S S E E E E E S S E E E E
|---------------------------------------------|----------------------------------------|
|---------------------------------------------|----------------------------------------|
|---------------------------------------------|---8----------8-8--8----------5--5----5-|
|--5----------5-5--5----------8--8----------8-|---8----------8-8--8----------5--5----5-|
|--5----------5-5--5----------8--8----------8-|---6----------6-6--6----------3--3----3-|
|--3----------3-3--3----------6--6----------6-|----------------------------------------|


G5 Bb5 Eb5 D5
S S S S S S S S S S S S S S E E E E E
|-------------------------------------|---------------------------|
|--18--15-------x---------------------|---------------------------|
|---------18-17---17-15-x-15----------|---------------------------|
|----------------------------19-15----|---------------------15-17-|
|----------------------------------17-|---------------------------|
|-------------------------------------|--17h=18-17---15-13--------|
|
| +H. +Q. Q.
|-(15)--------------------------------|-(15)------------17--------|
|-------------------------------------|---------------------------|
|-(12)--------------------------------|-(12)------------14--------|
|-------------------------------------|---------------------------|
|-------------------------------------|---------------------------|
|-------------------------------------|---------------------------|
|
| E S S E E E E E S S E E E E
|-------------------------------------|---------------------------|
|-------------------------------------|---------------------------|
|-------------------------------------|---8------8-8--8--7---7--7-|
|---5------5--5-5-----8----8-----8----|---8------8-8--8--7---7--7-|
|---5------5--5-5-----8----8-----8----|---6------6-6--6--5---5--5-|
|---3------3--3-3-----6----6-----6----|---------------------------|


G5 Bb5 Eb5 C5
S S S S S S S +S S S +S S S S S S S S Q.
|------------------------------------------------|--15-----------------15-------|
|-------------------------------18------------18-|------18-15----15-18----------|
|--------------------17b19-(17)----17b19-(17)----|------------17----------------|
|-17--15-----------------------------------------|------------------------------|
|--------17-15-----------------------------------|------------------------------|
|--------------18-15-----------------------------|------------------------------|
|
| H. +H.
|-18---------------------------------------------|-(18)-------------------------|
|------------------------------------------------|------------------------------|
|-15---------------------------------------------|-(15)-------------------------|
|------------------------------------------------|------------------------------|
|------------------------------------------------|------------------------------|
|------------------------------------------------|------------------------------|
|
| E S S E E E E E S S E E E E
|------------------------------------------------|------------------------------|
|------------------------------------------------|------------------------------|
|------------------------------------------------|---8------8--8--8-----5--5--5-|
|--5------5--5--5-----8----------8---------8-----|---8------8--8--8-----5--5--5-|
|--5------5--5--5-----8----------8---------8-----|---6------6--6--6-----3--3--3-|
|--3------3--3--3-----6----------6---------6-----|------------------------------|


G5 Bb5 Eb5 D5
+Q S S S S S S S S E S E S E S E S
|-(15)-----------------------------|-------------------------------|
|-------------15-------------------|-------------------------------|
|----------------15----------------|-------------------------------|
|----------17----------------------|------17------17----17------17-|
|-------------------18-15----------|-----------------15----17------|
|-------------------------18-17-15-|--15-----18--------------------|
|
| +H. +H.
|-(18)-----------------------------|-(18)--------------------------|
|----------------------------------|-------------------------------|
|-(15)-----------------------------|-(15)--------------------------|
|----------------------------------|-------------------------------|
|----------------------------------|-------------------------------|
|----------------------------------|-------------------------------|
|
| E S S E E E E E S S E E E E
|----------------------------------|-------------------------------|
|----------------------------------|-------------------------------|
|----------------------------------|---8---8--8-8-----7--7----7----|
|---5--5-5--5-----8-----8-----8----|---8---8--8-8-----7--7----7----|
|---5--5-5--5-----8-----8-----8----|---6---6--6-6-----5--5----5----|
|---3--3-3--3-----6-----6-----6----|-------------------------------|


G5 Bb5 Eb5 C5
S +S S S +S S E E +E E E +E S +S +Q
|-----------------------------15------------|--18---------------20b22-(20)-(20)---|
|------------18------------18---------------|-------------------------------------|
|-17b19-(17)----17b19-(17)-------17b19-(17)-|------17b19---(17)-------------------|
|-------------------------------------------|-------------------------------------|
|-------------------------------------------|-------------------------------------|
|-------------------------------------------|-------------------------------------|
|
| H. +H.
|-22----------------------------------------|-(22)--------------------------------|
|-------------------------------------------|-------------------------------------|
|-19----------------------------------------|-(19)--------------------------------|
|-------------------------------------------|-------------------------------------|
|-------------------------------------------|-------------------------------------|
|-------------------------------------------|-------------------------------------|
|
| E S S E E E E E S S E E E E
|-------------------------------------------|-------------------------------------|
|-------------------------------------------|-------------------------------------|
|-------------------------------------------|---8---8----8---8---5-----------5--5-|
|--5----------5--5------5------8--8------8--|---8---8----8---8---5-----------5--5-|
|--5----------5--5------5------8--8------8--|---6---6----6---6---3-----------3--3-|
|--3----------3--3------3------6--6------6--|-------------------------------------|


G5 Bb5 Eb5 D5
E E +E Q +S S H.
|--15---------------15---(15)----|---------------------|
|------18b20---(18)--------------|---------------------|
|-----------------------------15-|--17-----------------|
|--------------------------------|---------------------|
|--------------------------------|---------------------|
|--------------------------------|---------------------|
|
| +H. +Q. Q.
|-(22)---------------------------|-(22)-------17-------|
|--------------------------------|---------------------|
|-(19)---------------------------|-(19)-------14-------|
|--------------------------------|---------------------|
|--------------------------------|---------------------|
|--------------------------------|---------------------|
|
| E S S E E E E E S S E E E E
|--------------------------------|---------------------|
|--------------------------------|---------------------|
|--------------------------------|---8--8-8-8--7--7-7--|
|---5---5----5---5---8-8---8-----|---8--8-8-8--7--7-7--|
|---5---5----5---5---8-8---8-----|---6--6-6-6--5--5-5--|
|---3---3----3---3---6-6---6-----|---------------------|


G5 Bb5 Eb5 C5
|---3---|
E S S S E E S E S E S E S E E E
|---------------------------------|--------------------------|
|---------------------------------|--------------------------|
|-18--17h18p==17-15----15------15-|------15------15----------|
|---------------------------------|--------------------------|
|-------------------17----15------|--13-----12------13-12----|
|---------------------------------|-----------------------13-|
|
| H. +H.
|-22------------------------------|-(22)---------------------|
|---------------------------------|--------------------------|
|-19------------------------------|-(19)---------------------|
|---------------------------------|--------------------------|
|---------------------------------|--------------------------|
|--------------------------------

Like us on Facebook.....
-> Loading Time :0.0212 sec