Vision Conquest Tabs & Lyrics by Napalm Death

Vision Conquest

guitar tabs lyrics

Napalm Death

Album : Harmony Corruption death metal PlayStop



N A P A L M D E A T H - V I S I O N C O N Q U E S T
From the Album HARMONY CORRUPTION
Copyright 1990 EARACHE RECORDS

Version 2.0 - MAY '02

Originally Transcribed by: Rick
Version 2.0 by: death8699

For Questions, Comments, Newest Version, or Corrections contact

Rick: at ricknapalm@hotmail.com
death8699: at ArchEnemies@aol.com

Check Out Death8699.com, With More Transcriptions On It:
http://www.death8699.com




. - palm mute / - slide up to
\ - slide down to ~ - vibrato
" - tremelo picking ( ) - ghost note
b - bend h - hammer-on
fb - full bend (1 step) p - pull-off
hb - half bend (1/2 step) r - release a bend
t - tapping ah - artificial harmonic

Tune Gtr to D

--VISION CONQUEST--

[Riff A]
[--------------------------|--------------------------]
[--------------------------|--------------------------]
[*-------------------------|-------------------------*]GTRS 1&2
[*----------5--4--3--------|----------5--4--3--------*]
[--5--4--3--3--2--1--3--4--|-5--4--3--3--2--1--3--4---]
[--3--2--1-----------1--2--|-3--2--1-----------1--2---]


Play Riff A 1 time


[Riff B]
[-----------------------------------|-----------------------------------]
[-----------------------------------|-----------------------------------]
[*----------------------------------|----------------------------------*]GTRS 1&2
[*-------------9"--8"------10"--0"--|-------------9"--8"------10"------*]
[--7"--8"--------------9"-----------|-7"--8"--------------9"------------]
[----------6"-----------------------|---------6"------------------------]


Play Riff B 1 time


[Riff C]
[------------------------------------|------------------------------------]
[------------------------------------|------------------------------------]
[*-----------------------------------|-----------------------------------*]GTRS 1&2
[*-------------------------------5"--|-----------------------------------*]
[--2--2----9--8-8----8"--5"--7"------|-2--2----9--8-8----8"--5"-----------]
[--0--0----7--6-6--------------------|-0--0----7--6-6------------4"--1"---]


Play Riff C 3 times
Play Riff B 2 times
Play Riff C 4 times


[Riff D]
[-------------------------------|-----------------------------------]
[-------------------------------|-----------------------------------]
[*------------------------------|----------------------------------*]GTRS 1&2
[*-------5__6-------------------|-------5__6--------------------3--*]
[----------h---5__6--------2__1-|---------h---5-----------2__1------]
[--3"-4----------h---1"-2----p--|-3"-4-----------6--1"-2----p-------]


Play Riff D 3 times


[Riff D.1]
[-------------------------------|-----------------------------------]
[-------------------------------|-----------------------------------]
[*------------------------------|----------------------------------*]GTRS 1&2
[*-------5"-6-------------------|-------5"-6--------------------3--*]
[--------------5"-6--------2"-1-|-------------5-----------2"-1------]
[--3"-4--------------1"-2-------|-3"-4-----------6--1"-2------------]


Play Riff D.1 3 times


[Riff E]
[----------------------------|----------------------------]
[----------------------------|----------------------------]
[*---------------------------|---------------------------*]GTRS 1&2
[*-5"----5"--6"-5"----5"--3"-|-5"----5"--6"-5"----5"--3"-*]
[----4"----4"-----4"----4"---|---4"----4"-----4"----4"----]
[------3"-----------3"-------|-----3"-----------3"--------]


Play Riff E 1 time


[Riff F]
[----------------------------|----------------------------]
[----------------------------|----------------------------]
[*---------------------------|---------------------------*]GTRS 1&2
[*-4"----4"--5"-4"----4"--3"-|-4"----4"--5"-4"----4"--3"-*]
[----3"----3"-----3"----3"---|---3"----3"-----3"----3"----]
[------2"-----------2"-------|-----2"-----------2"--------]


Play Riff F 1 time
Play Riff E 2 times
Play Riff F 2 times
Play Riff D.1 2 times
Play Riff C 2 times
Play Riff B 2 times
Play Riff A 2 times


[End]
[------]
[------]
[*----*]GTRS 1&2
[*----*]
[--2---]
[--0---]

Check Out Death8699.com, With More Transcriptions On It:
http://www.death8699.co

Like us on Facebook.....
-> Loading Time :0.0148 sec