Vices Tabs & Lyrics by Anti-Flag

Vices

guitar tabs lyrics

Anti-Flag

Album : The Bright Lights of America albums i own PlayStop



Song:Vices
Band:Anti-flag
Allbum:The bright lights of america

Just for the record, this is my first tab so it could be dodgy.

Intro on piano
--------------------------------------------
--------------------------------------------
----444-11-----444-11-----444-11-----444-11-

--------------------------------------------
444-----------------------------------------
-----------444--------555--------222--------

Intro (guitar)
------------------------------------------------
------------------------------------------------
6666-666-8-9999-9-1111-8---4444-4444-88888-99-11
------------------------------------------------ X 2
4444-444-6-7777-7-9-9--6---2222-2222-66666-77-9-
------------------------------------------------

Chorus
-------------------------------------------
-------------------------------------------
----444-11-----444-11-----444-11-----444-11
-------------------------------------------
444----------------------------------------
-----------444--------555--------777-------

Verse
--|--|-------------------------------------
--|--|-------------------------------------
6-|6-|4h6-6-9-6-8-4h6-2h4-1-4-4h6-6-9-6-8-8
--|--|-------------------------------------
4-|4-|-------------------------------------
--|--|-------------------------------------

On second verse play:
----4----|4----------|-------------------------------------------
4-5---7-5|--7-5-7-5-4|-------------------------------------------
---------|-----------|666-444-66-666-444-66-666-444-66-666-444-66
---------|-----------|-------------------------------------------
---------|-----------|-------------------------------------------
---------|-----------|-------------------------------------------
start this palm muted and then gets clearer

If you listen to the CD you can work out the order and the timing

Like us on Facebook.....
-> Loading Time :0.0082 sec