Turn the Other Way Tabs & Lyrics by Avenged Sevenfold

Turn the Other Way

guitar tabs lyrics

Avenged Sevenfold

Album : Sounding the Seventh Trumpet metalcore PlayStop



TURN THE OTHER WAY
As recorded by Avenged Sevenfold
(From the 2002 Album SOUNDING THE SEVENTH TRUMPET)



Gtr. I (D A D G B E) 'Zacky V'
Gtr. II (D A D G B E) 'Zacky V'


|- Q=141 |- Q=144
|- 4/4 |- 2/4 |- 4/4
Gtrs. I, II
Q E E Q Q Q E E S S S E. S S S S S E. S S E S S S S S E. E Q
|-----------|-------|---------------------------|------------------------|
|-----------|-------|---------------------------|------------------------|
|-----------|-------|---------------------------|------------------------|
|-----------|-------|---------------------------|---------------------|
|-0-0-3-6-8-|-7-5-3-|---------------------------|---------------------|
|-0-0-3-6-8-|-7-5-3-|-0-0-0----0-0-0-0-0----0---|---0-0-0-0-0------------|



S S S E. S S S S S E. S S E S S S S S E. E Q
|---------------------------|--------------------|
|---------------------------|--------------------|
|---------------------------|--------------------|
|---------------------------|--------------------|
|---------------------------|----------------0-1-|
|-0-0-0----0-0-0-0-0----0---|---0-0-0-0-0----0-1-|



S S S E. S S S S S E. S S E S S S S S E. E E E
|---------------------------|----------------------------|
|---------------------------|----------------------------|
|---------------------------|----------------------------|
|---------------------------|-------------------------|
|---------------------------|----------------------|
|-0-0-0----0-0-0-0-0----0---|---0-0-0-0-0----------------|



S S S E. S S S S S E. S S E S S S S S E. E Q
|---------------------------|---------------------|
|---------------------------|---------------------|
|---------------------------|---------------------|
|---------------------------|---------------------|
|---------------------------|----------------0-1--|
|-0-0-0----0-0-0-0-0----0---|---0-0-0-0-0----0-1--|


|- Q=147
S S E E S S S S E E E E S S S S E E E Q
|-----------------------|-----------------------|
|-----------------------|-----------------------|
|-----------------------|-----------------------|
|-----------------------|--------------------|
|-0-0-0---0-0-0-0-0---0-|---0-0-0-0-0--------|
|-0-0-0---0-0-0-0-0---0-|---0-0-0-0-0-----------|



S S E E S S S S E E E E S S S S E E E Q
|-----------------------|-------------------|
|-----------------------|-------------------|
|-----------------------|-------------------|
|-----------------------|-------------------|
|-0-0-0---0-0-0-0-0---0-|---0-0-0-0-0---0-1-|
|-0-0-0---0-0-0-0-0---0-|---0-0-0-0-0---0-1-|



S S E E S S S S E E E E S S S S E E E E E
|-----------------------|---------------------------|
|-----------------------|---------------------------|
|-----------------------|---------------------------|
|-----------------------|------------------------|
|-0-0-0---0-0-0-0-0---0-|---0-0-0-0-0---------|
|-0-0-0---0-0-0-0-0---0-|---0-0-0-0-0---------------|



S S E E S S S S E E E E S S S S E E E Q
|-----------------------|-------------------|
|-----------------------|-------------------|
|-----------------------|-------------------|
|-----------------------|-------------------|
|-0-0-0---0-0-0-0-0---0-|---0-0-0-0-0---0-1-|
|-0-0-0---0-0-0-0-0---0-|---0-0-0-0-0---0-1-|


|- Q=136 |- Q=138
S S E E E Q. E +E E E E E E Q S S E E E Q. S S +E Q E S S E E E
|-----------------|-------------------|-------------------|-----------------------|
|-----------------|-------------------|-------------------|-----------------------|
|-----------------|-------------------|-------------------|-----------------------|
|-----------------|-------------------|-------------------|-----------7h8p7-------|
|-3/5-8-7----8--8-|-(8)-7-8-7-8-10-10-|-3/5-8-7----8-8h10-|-(10)-8-10-------8-[7]-|
|---------10-8--8-|-(8)-7-8-7-8-10-10-|---------10-8------|-----------------------|


S S E E E Q. E +E E E E E E Q S S E E E Q. S S +E Q E E E Q
|-----------------|-------------------|-------------------|-----------------|
|-----------------|-------------------|-------------------|-----------------|
|-----------------|-------------------|-------------------|-----------------|
|-----------------|-------------------|-------------------|-----------------|
|-3/5-8-7----8--8-|-(8)-7-8-7-8-10-10-|-3/5-8-7----8-8h10-|-(10)-8-7-8-7----|
|---------10-8--8-|-(8)-7-8-7-8-10-10-|---------10-8------|--------------10-|


S S S E. S S S S S E. S S E S S S S S S H
|---------------------------|-----------------|
|---------------------------|-----------------|
|---------------------------|-----------------|
|---------------------------|-----------------|
|---------------------------|-----------------|
|-0-0-0----0-0-0-0-0----0---|---0-0-0-0-0-----|


S S S E. S S S S S E. S S E S S S S S S H
|---------------------------|------------------|
|---------------------------|------------------|
|---------------------------|---------------7\-|
|---------------------------|---------------7\-|
|---------------------------|---------------5\-|
|-0-0-0----0-0-0-0-0----0---|---0-0-0-0-0------|


E E E E E E E E E E E E E E Q E E E E E E E E E E E E E E Q
|-----------------|-------------------|-----------------|---------------|
|-----------------|-------------------|-----------------|---------------|
|-----------------|-------------------|-----------------|---------------|
|-----------------|----------------|-----------------|---------------|
|-0-0---0-0-0---0-|---0-0-0--------|-0-0---0-0-0---0-|---0-0-0---0-1-|
|-0-0---0-0-0---0-|---0-0-0-----------|-0-0---0-0-0---0-|---0-0-0---0-1-|


E E E E E E E E E E E E E E E E E E E E E E E E E E E E E E Q
|-----------------|-----------------------|-----------------|---------------|
|-----------------|-----------------------|-----------------|---------------|
|-----------------|-----------------------|-----------------|---------------|
|-----------------|--------------------|-----------------|---------------|
|-0-0---0-0-0---0-|---0-0-0---------|-0-0---0-0-0---0-|---0-0-0---0-1-|
|-0-0---0-0-0---0-|---0-0-0---------------|-0-0---0-0-0---0-|---0-0-0---0-1-|


|- 7/8
E Q E Q E E E E S E S E S E.
|-------------|-------------------|
|-------------|-------------------|
|-------------|-------------------|
|-------------|----------------|
|-0---0---0---|---5-3-0-----------|
|-0---0---0---|---------6-5-3-----|


|- 3/4
E. E. E S E. E E. S E. E S E. E. E S E. E S E S E S E.
|--------------|---------------|--------------|-----------------|
|--------------|---------------|--------------|-----------------|
|--------------|---------------|--------------|-----------------|
|--------------|---------------|--------------|--------------|
|-0--0--0-0-0--|---------------|-1--1--1-1-1--|-5-3-0-----------|
|-0--0--0-0-0--|-3p0--5p0--3p0-|-1--1--1-1-1--|-------6-5-3-----|


|- Q=143
E. E. E S E. E E. S E. E S E. E. E S E. E S E S E S E.
|--------------|---------------|--------------|-----------------|
|--------------|---------------|--------------|-----------------|
|--------------|---------------|--------------|-----------------|
|--------------|---------------|--------------|--------------|
|-0--0--0-0-0--|---------------|-1--1--1-1-1--|-5-3-0-----------|
|-0--0--0-0-0--|-3p0--5p0--3p0-|-1--1--1-1-1--|-------6-5-3-----|



E. E. E S E. E E. S E. E S E. E. E S E. E S E S E S E.
|--------------|---------------|--------------|-----------------|
|--------------|---------------|--------------|-----------------|
|--------------|---------------|--------------|-----------------|
|--------------|---------------|--------------|--------------|
|-0--0--0-0-0--|---------------|-1--1--1-1-1--|-5-3-0-----------|
|-0--0--0-0-0--|-3p0--5p0--3p0-|-1--1--1-1-1--|-------6-5-3-----|


|- Q=141 |- Q=140 |- Q=139 |- Q=134
E. E. E S E. E E. S E. E S E. E. E S E. E S E S E S E.
|--------------|---------------|--------------|-----------------|
|--------------|---------------|--------------|-----------------|
|--------------|---------------|--------------|-----------------|
|--------------|---------------|--------------|--------------|
|-0--0--0-0-0--|---------------|-1--1--1-1-1--|-5-3-0-----------|
|-0--0--0-0-0--|-3p0--5p0--3p0-|-1--1--1-1-1--|-------6-5-3-----|



|- Q=145
|- 4/4
E Q S S S E. +E E +E Q S S E Q. E Q S S S E. E E E E Q E E Q
|--------------------|----------------|------------------|-------------|
|--------------------|----------------|------------------|-------------|
|--------------------|----------------|------------------|-------5p0-6-|
|--------------------|----------------|------------------|-------------|
|---------6-5--(5)---|-----------6----|---------6-5------|-------------|
|-0-0-6-5----------0-|-(0)-0-6-5------|-0-0-6-5------0-0-|-0-0---------|



E Q S S S E. +E E +E Q S S E Q. E Q S S S E. E E E E Q E E Q
|--------------------|----------------|------------------|-------------|
|--------------------|----------------|------------------|-------------|
|--------------------|----------------|------------------|-------5p0-6-|
|--------------------|----------------|------------------|-------------|
|---------6-5--(5)---|-----------6----|---------6-5------|-------------|
|-0-0-6-5----------0-|-(0)-0-6-5------|-0-0-6-5------0-0-|-0-0---------|



E Q S S S E. +E E +E Q S S E Q. E Q S S S E. E E E E Q E E Q
|--------------------|----------------|------------------|-------------|
|--------------------|----------------|------------------|-------------|
|--------------------|----------------|------------------|-------5p0-6-|
|--------------------|----------------|------------------|-------------|
|---------6-5--(5)---|-----------6----|---------6-5------|-------------|
|-0-0-6-5----------0-|-(0)-0-6-5------|-0-0-6-5------0-0-|-0-0---------|


Gtr I
E Q S S S E. +E E +E Q S S E Q. E Q S S S E. E E E E Q E E Q
|--------------------|----------------|------------------|-------------|
|--------------------|----------------|------------------|-------------|
|--------------------|----------------|------------------|-------5p0-6-|
|--------------------|----------------|------------------|-------------|
|---------6-5--(5)---|-----------6----|---------6-5------|-------------|
|-0-0-6-5----------0-|-(0)-0-6-5------|-0-0-6-5------0-0-|-0-0---------|
| |
|Gtr II |
| E Q S S S E. +E E +E Q S S E Q. E Q S S S E. E E E E Q E E Q |
|--------------------|----------------|------------------|-------------|
|--------------------|----------------|------------------|-------5---6-|
|--------------------|----------------|------------------|---------3---|
|--------------------|----------------|------------------|-------------|
|---------6-5--(5)---|-----------6----|---------6-5------|-------------|
|-0-0-6-5----------0-|-(0)-0-6-5------|-0-0-6-5------0-0-|-0-0---------|



E Q S S S E. +E E +E Q S S E Q. E Q S S S E. E E E E Q E E Q
|--------------------|----------------|------------------|-------------|
|--------------------|----------------|------------------|-------------|
|--------------------|----------------|------------------|-------5p0-6-|
|--------------------|----------------|------------------|-------------|
|---------6-5--(5)---|-----------6----|---------6-5------|-------------|
|-0-0-6-5----------0-|-(0)-0-6-5------|-0-0-6-5------0-0-|-0-0---------|
| |
| |
| E Q S S S E. +E E +E Q S S E Q. E Q S S S E. E E E E Q E E Q |
|--------------------|----------------|------------------|-------------|
|--------------------|----------------|------------------|-------5---6-|
|--------------------|----------------|------------------|---------3---|
|--------------------|----------------|------------------|-------------|
|---------6-5--(5)---|-----------6----|---------6-5------|-------------|
|-0-0-6-5----------0-|-(0)-0-6-5------|-0-0-6-5------0-0-|-0-0---------|



E Q S S S E. +E E +E Q S S E Q. E Q S S S E. E E E E Q E E Q
|--------------------|----------------|------------------|-------------|
|--------------------|----------------|------------------|-------------|
|--------------------|----------------|------------------|-------5p0-6-|
|--------------------|----------------|------------------|-------------|
|---------6-5--(5)---|-----------6----|---------6-5------|-------------|
|-0-0-6-5----------0-|-(0)-0-6-5------|-0-0-6-5------0-0-|-0-0---------|
| |
| |
| E Q S S S E. +E E +E Q S S E Q. E Q S S S E. E E E E Q E E Q |
|--------------------|----------------|------------------|-------------|
|--------------------|----------------|------------------|-------5---6-|
|--------------------|----------------|------------------|---------3---|
|--------------------|----------------|------------------|-------------|
|---------6-5--(5)---|-----------6----|---------6-5------|-------------|
|-0-0-6-5----------0-|-(0)-0-6-5------|-0-0-6-5------0-0-|-0-0---------|



E Q S S S E. +E E +E Q S S E Q. E Q S S S E. E E E E Q E E Q
|--------------------|----------------|------------------|-------------|
|--------------------|----------------|------------------|-------------|
|--------------------|----------------|------------------|-------5p0-6-|
|--------------------|----------------|------------------|-------------|
|---------6-5--(5)---|-----------6----|---------6-5------|-------------|
|-0-0-6-5----------0-|-(0)-0-6-5------|-0-0-6-5------0-0-|-0-0---------|
| |
| |
| E Q S S S E. +E E +E Q S S E Q. E Q S S S E. E E E E Q E E Q |
|--------------------|----------------|------------------|-------------|
|--------------------|----------------|------------------|-------5---6-|
|--------------------|----------------|------------------|---------3---|
|--------------------|----------------|------------------|-------------|
|---------6-5--(5)---|-----------6----|---------6-5------|-------------|
|-0-0-6-5----------0-|-(0)-0-6-5------|-0-0-6-5------0-0-|-0-0---------|



E E Q E E E E E E Q S S E E E E E Q E E Q S S E E E E E E E
|---------------|------------------|----------------|------------------------------|
|---------------|------------------|----------------|------------------------------|
|-------7---8---|-------7/8---10---|-------10-12----|------------------------------|
|---------7---7-|-----------8----8-|-------------12-|-12-13-12-10------------------|
|-0-0-----------|-0-0--------------|-0-0------------|-------------13-12-13-10------|
|-0-0-----------|-0-0--------------|-0-0------------|--------------------------|
| |
| |
| E E Q H E E Q H E E Q H E E Q H |
|---------------|------------------|----------------|------------------------------|
|---------------|------------------|----------------|------------------------------|
|---------------|------------------|----------------|------------------------------|
|---------------|------------------|----------------|------------------------------|
|-0-0-----------|-0-0--------------|-0-0------------|--0-----0---------------------|
|-0-0-----------|-0-0--------------|-0-0------------|--0-----0---------------------|



E E Q E E E E E E Q S S E E E E E Q E E Q E E E E Q Q
|---------------|------------------|----------------|-------------------|
|---------------|------------------|----------------|-------------------|
|-------7---8---|-------7/8---10---|-------10-12----|-------------------|
|---------7---7-|-----------8----8-|-------------12-|-12-13-12-10----10-|
|-0-0-----------|-0-0--------------|-0-0------------|-------------13----|
|-0-0-----------|-0-0--------------|-0-0------------|-------------------|
| |
| |
| E E Q H E E Q H E E Q H E E Q H |
|---------------|------------------|----------------|-------------------|
|---------------|------------------|----------------|-------------------|
|---------------|------------------|----------------|-------------------|
|---------------|------------------|----------------|-------------------|
|-0-0-----------|-0-0--------------|-0-0------------|--0--0-------------|
|-0-0-----------|-0-0--------------|-0-0------------|--0--0-------------|



|- Q=147
Gtrs I, II
Q. E Q. E +E Q. Q Q Q. E +H Q. E +H
|-----------|------------|------------|----------|
|-6--6-6--6-|-(6)-6--6-8-|-10-11-(11)-|----------|
|-5--5-5--5-|-(5)-5--5-7-|--9-10-(10)-|-2--2-(2)-|
|-3--3-3--3-|-(3)-3--3-5-|--7--8--(8)-|-0--0-(0)-|
|-3--3-3--3-|-(3)-3--3-5-|--7--8--(8)-|-0--0-(0)-|
|-3--3-3--3-|-(3)-3--3-5-|--7--8--(8)-|-0--0-(0)-|



Q E E E Q E Q E E E Q E Q E E E Q E Q E E E Q E
|-------------|-------------|-------------|-------------|
|-------------|-------------|-------------|-------------|
|-3-3-3-3-3-3-|-3-3-3-3-3-3-|-5-5-5-5-5-5-|-------------|
|-1-1-1-1-1-1-|-1-1-1-1-1-1-|-3-3-3-3-3-3-|-0-0-0-0-0-0-|
|-1-1-1-1-1-1-|-1-1-1-1-1-1-|-3-3-3-3-3-3-|-0-0-0-0-0-0-|
|-1-1-1-1-1-1-|-1-1-1-1-1-1-|-3-3-3-3-3-3-|-0-0-0-0-0-0-|



Q E E E E E E E E E E E E E E E E E E E E E E E E E E E E E E
|---------------|-----------------|-----------------|-----------------|
|---------------|-----------------|-----------------|-----------------|
|---------------|-----------------|-----------------|-----------------|
|-5-5-5-5-5-5-5-|-5-5-5-5-5-5-3-3-|-1-1-1-1-1-1-1-1-|-1-1-1-1-1-1-1-1-|
|-5-5-5-5-5-5-5-|-5-5-5-5-5-5-3-3-|-1-1-1-1-1-1-1-1-|-1-1-1-1-1-1-1-1-|
|-5-5-5-5-5-5-5-|-5-5-5-5-5-5-3-3-|-1-1-1-1-1-1-1-1-|-1-1-1-1-1-1-1-1-|



E E E E E E E E E E E E E E E E E E E E E E E E E E E E E E E E
|-----------------|-----------------|-----------------|-----------------|
|-----------------|-----------------|-----------------|-----------------|
|-3-3-3-3-3-3-3-3-|-3-3-3-3-3-3-----|-----------------|-----------------|
|-3-3-3-3-3-3-3-3-|-3-3-3-3-3-3-5-5-|-3-3-3-3-3-3-3-3-|---7-7---7-7-7-7-|
|-1-1-1-1-1-1-1-1-|-1-1-1-1-1-1-5-5-|-3-3-3-3-3-3-3-3-|---5-5---5-5-5-5-|
|-----------------|-------------5-5-|-3-3-3-3-3-3-3-3-|-----------------|


|- Q=155
Gtr I
E Q E Q E E E Q E H E Q E Q S S S S E. E E. E. E E.
|-----------------|-----------------|---------------------|-------------------------|
|-----------------|-----------------|---------------------|-------------------------|
|-----------------|-----------------|---------------------|-------------------------|
|-----------------|-----------------|---------------------|-------------------------|
|-5-5---------5-5-|-5-5-------------|-5-5---------5-5-5-5-|-5---6---5---1---3---6---|
|-5-5---------5-5-|-5-5-------------|-5-5---------5-5-5-5-|-5---6---5---1---3---6---|
| |
| Gtr II |
| E E E E E E E E E E E E E E E E E E E E E E E E E E E E E E E E |
|-----------------|-----------------|---------------------|-------------------------|
|-----------------|-----------------|---------------------|-------------------------|
|-7-7-7-7-7-7-7-7-|-7-7-7-7-7-7-7-7-|-8-8-8-8-8-8-8---8---|-5-5---5---5-5-5---5---5-|
|-----------------|-----------------|---------------------|-------------------------|
|-5-5-5-5-5-5-5-5-|-5-5-5-5-5-5-5-5-|-6-6-6-6-6-6-6---6---|-3-3---3---3-3-3---3---3-|
|-----------------|-----------------|---------------------|-------------------------|



E Q E Q E E E Q E H E Q E Q S S S S E. E E. E. E E.
|-----------------|-----------------|---------------------|-------------------------|
|-----------------|-----------------|---------------------|-------------------------|
|-----------------|-----------------|---------------------|-------------------------|
|-----------------|-----------------|---------------------|-------------------------|
|-5-5---------5-5-|-5-5-------------|-5-5---------5-5-5-5-|-5---6---5---1---3---6---|
|-5-5---------5-5-|-5-5-------------|-5-5---------5-5-5-5-|-5---6---5---1---3---6---|
| |
| |
| E E E E E E E E E E E E E E E E E E E E E E E E E E E E E E E E |
|-----------------|-----------------|---------------------|-------------------------|
|-----------------|-----------------|---------------------|-------------------------|
|-7-7-7-7-7-7-7-7-|-7-7-7-7-7-7-7-7-|-8-8-8-8-8-8-8---8---|-5-5---5---5-5-5---5---5-|
|-----------------|-----------------|---------------------|-------------------------|
|-5-5-5-5-5-5-5-5-|-5-5-5-5-5-5-5-5-|-6-6-6-6-6-6-6---6---|-3-3---3---3-3-3---3---3-|
|-----------------|-----------------|---------------------|-------------------------|



E Q E Q E E E Q E H E Q E Q S S S S E. E E. E. E E.
|-----------------|-----------------|---------------------|-------------------------|
|-----------------|-----------------|---------------------|-------------------------|
|-----------------|-----------------|---------------------|-------------------------|
|-----------------|-----------------|---------------------|-------------------------|
|-5-5---------5-5-|-5-5-------------|-5-5---------5-5-5-5-|-5---6---5---1---3---6---|
|-5-5---------5-5-|-5-5-------------|-5-5---------5-5-5-5-|-5---6---5---1---3---6---|
| |
| |
| E E E E E E E E E E E E E E E E E E E E E E E E E E E E E E E E |
|-----------------|-----------------|---------------------|-------------------------|
|-----------------|-----------------|---------------------|-------------------------|
|-7-7-7-7-7-7-7-7-|-7-7-7-7-7-7-7-7-|-8-8-8-8-8-8-8---8---|-5-5---5---5-5-5---5---5-|
|-----------------|-----------------|---------------------|-------------------------|
|-5-5-5-5-5-5-5-5-|-5-5-5-5-5-5-5-5-|-6-6-6-6-6-6-6---6---|-3-3---3---3-3-3---3---3-|
|-----------------|-----------------|---------------------|-------------------------|


|- Q=160
E Q E Q E E E Q E H E Q E Q S S S S E. E E. E. E E.
|-----------------|-----------------|---------------------|----------------|
|-----------------|-----------------|---------------------|----------------|
|-----------------|-----------------|---------------------|----------------|
|-----------------|-----------------|---------------------|----------------|
|-5-5---------5-5-|-5-5-------------|-5-5---------5-5-5-5-|-5--6-5--1--3-6-|
|-5-5---------5-5-|-5-5-------------|-5-5---------5-5-5-5-|-5--6-5--1--3-6-|
| |
| |
| E E E E E E E E E E E E E E E E E E E E E E E E E. E E. E. E E.|
|-----------------|-----------------|---------------------|----------------|
|-----------------|-----------------|---------------------|----------------|
|-7-7-7-7-7-7-7-7-|-7-7-7-7-7-7-7-7-|-8-8-8-8-8-8-8---8---|----------------|
|-----------------|-----------------|---------------------|----------------|
|-5-5-5-5-5-5-5-5-|-5-5-5-5-5-5-5-5-|-6-6-6-6-6-6-6---6---|-5--6-5--1--3-6-|
|-----------------|-----------------|---------------------|-5--6-5--1--3-6-|


Gtrs I, II
E Q E Q E E E Q E H E Q E Q S S S S E. E E. E. E E.
|-------------|---------|-----------------|-----------------|
|-------------|---------|-----------------|-----------------|
|-------------|---------|-----------------|-----------------|
|-------------|---------|-----------------|-----------------|
|-5-5-----5-5-|-5-5-----|-5-5-----5-5-5-5-|-5--6-5--1--3-6--|
|-5-5-----5-5-|-5-5-----|-5-5-----5-5-5-5-|-5--6-5--1--3-6--|



E Q E Q E E E Q E H E Q E Q S S S S E. E E. E. E E.
|-------------|---------|-----------------|-----------------|
|-------------|---------|-----------------|-----------------|
|-------------|---------|-----------------|-----------------|
|-------------|---------|-----------------|-----------------|
|-5-5-----5-5-|-5-5-----|-5-5-----5-5-5-5-|-5--6-5--1--3-6--|
|-5-5-----5-5-|-5-5-----|-5-5-----5-5-5-5-|-5--6-5--1--3-6--|



E Q E Q E E E Q E H E Q E Q S S S S E. E E. E. E E.
|-------------|---------|-----------------|-----------------|
|-------------|---------|-----------------|-----------------|
|-------------|---------|-----------------|-----------------|
|-------------|---------|-----------------|-----------------|
|-5-5-----5-5-|-5-5-----|-5-5-----5-5-5-5-|-5--6-5--1--3-6--|
|-5-5-----5-5-|-5-5-----|-5-5-----5-5-5-5-|-5--6-5--1--3-6--|


|- Q=165 |- Q=151 |-2/4
E Q E Q E E E Q E H E Q E Q S S S S E. E E. E. E E. +W +W +H
|-------------|---------|-----------------|-----------------|-----|-----|-----|
|-------------|---------|-----------------|-----------------|-----|-----|-----|
|-------------|---------|-----------------|-----------------|-----|-----|-----|
|-------------|---------|-----------------|-----------------|-----|-----|-----|
|-5-5-----5-5-|-5-5-----|-5-5-----5-5-5-5-|-5--6-5--1--3-6--|-(6)-|-(6)-|-(6)-|
|-5-5-----5-5-|-5-5-----|-5-5-----5-5-5-5-|-5--6-5--1--3-6--|-(6)-|-(6)-|-(6)-|



|- Q=158
|- 4/4
Gtr I
Q E E Q Q E E Q Q Q Q E E Q Q E E E E Q Q
|-----------------|-----------------|-----------------|-----------------|
|-----------------|-----------------|-----------------|-----------------|
|-----------------|-----------------|-----0h2p0-------|-----------------|
|-----------------|-----------------|-------------3---|-2-3-2-0-----2---|
|-----5h6p5---8---|-7-5-3---3---0---|-1---------------|---------3-------|
|-0---------------|-----------------|-----------------|-----------------|
| |
|Gtr II |
| E E E E E E E E E E E E E E E E E E E E E E E E E E E E E E E E |
|-----------------|-----------------|-----------------|-----------------|
|-----------------|-----------------|-----------------|-----------------|
|-----------------|-5-5-5-5-5-5-5-5-|-3-3-3-3-3-3-3-3-|-5-5-5-5-5-5-5-5-|
|-----------------|-5-5-5-5-5-5-5-5-|-3-3-3-3-3-3-3-3-|-5-5-5-5-5-5-5-5-|
|-0-0-0-0-0-0-0-0-|-3-3-3-3-3-3-3-3-|-1-1-1-1-1-1-1-1-|-3-3-3-3-3-3-3-3-|
|-0-0-0-0-0-0-0-0-|-----------------|-----------------|-----------------|



Q E E Q Q Q E E Q E E Q E E Q Q E E E E Q Q
|-----------------|-----------------|------------------|-----------------|
|-----------------|-----------------|------------------|-----------------|
|-----------------|-----------------|------------------|-----------------|
|-----------------|-----5-7-5---7-8-|-7---8-10-8---7---|-5-7-5-----------|
|-----5h6p5---8---|-7---------------|------------------|-------8-7---8---|
|-0---------------|-----------------|------------------|-----------------|
| |
| |
| E E E E E E E E E E E E E E E E E E E E E E E E E E E E E E E E |
|-----------------|-----------------|------------------|-----------------|
|-----------------|-----------------|------------------|-----------------|
|-----------------|-5-5-5-5-5-5-5-5-|-3-3-3--3-3-3-3-3-|-5-5-5-5-5-5-5-5-|
|-----------------|-5-5-5-5-5-5-5-5-|-3-3-3--3-3-3-3-3-|-5-5-5-5-5-5-5-5-|
|-0-0-0-0-0-0-0-0-|-3-3-3-3-3-3-3-3-|-1-1-1--1-1-1-1-1-|-3-3-3-3-3-3-3-3-|
|-0-0-0-0-0-0-0-0-|-----------------|------------------|-----------------|



Q E E Q Q E E Q Q Q Q E E Q Q E E E E Q Q
|-----------------|-----------------|-----------------|-----------------|
|-----------------|-----------------|-----------------|-----------------|
|-----------------|-----------------|-----0h2p0-------|-----------------|
|-----------------|-----------------|-------------3---|-2-3-2-0-----2---|
|-----5h6p5---8---|-7-5-3---3---0---|-1---------------|---------3-------|
|-0---------------|-----------------|-----------------|-----------------|
| |
| |
| E E E E E E E E E E E E E E E E E E E E E E E E E E E E E E E E |
|-----------------|-----------------|-----------------|-----------------|
|-----------------|-----------------|-----------------|-----------------|
|-----------------|-5-5-5-5-5-5-5-5-|-3-3-3-3-3-3-3-3-|-5-5-5-5-5-5-5-5-|
|-----------------|-5-5-5-5-5-5-5-5-|-3-3-3-3-3-3-3-3-|-5-5-5-5-5-5-5-5-|
|-0-0-0-0-0-0-0-0-|-3-3-3-3-3-3-3-3-|-1-1-1-1-1-1-1-1-|-3-3-3-3-3-3-3-3-|
|-0-0-0-0-0-0-0-0-|-----------------|-----------------|-----------------|



Q E E Q Q Q E E Q E E Q E E Q Q E E E E Q Q
|-----------------|-----------------|------------------|-----------------|
|-----------------|-----------------|------------------|-----------------|
|-----------------|-----------------|------------------|-----------------|
|-----------------|-----5-7-5---7-8-|-7---8-10-8---7---|-5-7-5-----------|
|-----5h6p5---8---|-7---------------|------------------|-------8-7---8---|
|-0---------------|-----------------|------------------|-----------------|
| |
| |
| E E E E E E E E E E E E E E E E E E E E E E E E E E E E E E E E |
|-----------------|-----------------|------------------|-----------------|
|-----------------|-----------------|------------------|-----------------|
|-----------------|-5-5-5-5-5-5-5-5-|-3-3-3--3-3-3-3-3-|-5-5-5-5-5-5-5-5-|
|-----------------|-5-5-5-5-5-5-5-5-|-3-3-3--3-3-3-3-3-|-5-5-5-5-5-5-5-5-|
|-0-0-0-0-0-0-0-0-|-3-3-3-3-3-3-3-3-|-1-1-1--1-1-1-1-1-|-3-3-3-3-3-3-3-3-|
|-0-0-0-0-0-0-0-0-|-----------------|------------------|-----------------|



Q E E Q Q E E Q Q Q Q E E Q Q E E E E Q Q
|-----------------|-----------------|-----------------|-----------------|
|-----------------|-----------------|-----------------|-----------------|
|-----------------|-----------------|-----0h2p0-------|-----------------|
|-----------------|-----------------|-------------3---|-2-3-2-0-----2---|
|-----5h6p5---8---|-7-5-3---3---0---|-1---------------|---------3-------|
|-0---------------|-----------------|-----------------|-----------------|
| |
| |
| E E E E E E E E E E E E E E E E E E E E E E E E E E E E E E E E |
|-----------------|-----------------|-----------------|-----------------|
|-----------------|-----------------|-----------------|-----------------|
|-----------------|-5-5-5-5-5-5-5-5-|-3-3-3-3-3-3-3-3-|-5-5-5-5-5-5-5-5-|
|-----------------|-5-5-5-5-5-5-5-5-|-3-3-3-3-3-3-3-3-|-5-5-5-5-5-5-5-5-|
|-0-0-0-0-0-0-0-0-|-3-3-3-3-3-3-3-3-|-1-1-1-1-1-1-1-1-|-3-3-3-3-3-3-3-3-|
|-0-0-0-0-0-0-0-0-|-----------------|-----------------|-----------------|



Q E E Q Q Q E E Q E E Q E E Q Q E E E E Q Q
|-----------------|-----------------|------------------|-----------------|
|-----------------|-----------------|------------------|-----------------|
|-----------------|-----------------|------------------|-----------------|
|-----------------|-----5-7-5---7-8-|-7---8-10-8---7---|-5-7-5-----------|
|-----5h6p5---8---|-7---------------|------------------|-------8-7---8---|
|-0---------------|-----------------|------------------|-----------------|
| |
| |
| E E E E E E E E E E E E E E E E E E E E E E E E E E E E E E E E |
|-----------------|-----------------|------------------|-----------------|
|-----------------|-----------------|------------------|-----------------|
|-----------------|-5-5-5-5-5-5-5-5-|-3-3-3--3-3-3-3-3-|-5-5-5-5-5-5-5-5-|
|-----------------|-5-5-5-5-5-5-5-5-|-3-3-3--3-3-3-3-3-|-5-5-5-5-5-5-5-5-|
|-0-0-0-0-0-0-0-0-|-3-3-3-3-3-3-3-3-|-1-1-1--1-1-1-1-1-|-3-3-3-3-3-3-3-3-|
|-0-0-0-0-0-0-0-0-|-----------------|------------------|-----------------|



Q E E Q Q E E Q Q Q Q E E Q Q E E E E Q Q
|-----------------|-----------------|-----------------|-----------------|
|-----------------|-----------------|-----------------|-----------------|
|-----------------|-----------------|-----0h2p0-------|-----------------|
|-----------------|-----------------|-------------3---|-2-3-2-0-----2---|
|-----5h6p5---8---|-7-5-3---3---0---|-1---------------|---------3-------|
|-0---------------|-----------------|-----------------|-----------------|
| |
| |
| E E E E E E E E E E E E E E E E E E E E E E E E E E E E E E E E |
|-----------------|-----------------|-----------------|-----------------|
|-----------------|-----------------|-----------------|-----------------|
|-----------------|-5-5-5-5-5-5-5-5-|-3-3-3-3-3-3-3-3-|-5-5-5-5-5-5-5-5-|
|-----------------|-5-5-5-5-5-5-5-5-|-3-3-3-3-3-3-3-3-|-5-5-5-5-5-5-5-5-|
|-0-0-0-0-0-0-0-0-|-3-3-3-3-3-3-3-3-|-1-1-1-1-1-1-1-1-|-3-3-3-3-3-3-3-3-|
|-0-0-0-0-0-0-0-0-|-----------------|-----------------|-----------------|



Q E E Q Q Q E E Q E E Q E E Q Q E E E E Q Q
|-----------------|-----------------|------------------|-----------------|
|-----------------|-----------------|------------------|-----------------|
|-----------------|-----------------|------------------|-----------------|
|-----------------|-----5-7-5---7-8-|-7---8-10-8---7---|-5-7-5-----------|
|-----5h6p5---8---|-7---------------|------------------|-------8-7---8---|
|-0---------------|-----------------|------------------|-----------------|
| |
| |
| E E E E E E E E E E E E E E E E E E E E E E E E E E E E E E E E |
|-----------------|-----------------|------------------|-----------------|
|-----------------|-----------------|------------------|-----------------|
|-----------------|-5-5-5-5-5-5-5-5-|-3-3-3--3-3-3-3-3-|-5-5-5-5-5-5-5-5-|
|-----------------|-5-5-5-5-5-5-5-5-|-3-3-3--3-3-3-3-3-|-5-5-5-5-5-5-5-5-|
|-0-0-0-0-0-0-0-0-|-3-3-3-3-3-3-3-3-|-1-1-1--1-1-1-1-1-|-3-3-3-3-3-3-3-3-|
|-0-0-0-0-0-0-0-0-|-----------------|------------------|-----------------|



Q E E Q Q E E Q Q Q Q E E Q Q E E E E Q Q
|-----------------|-----------------|-----------------|-----------------|
|-----------------|-----------------|-----------------|-----------------|
|-----------------|-----------------|-----0h2p0-------|-----------------|
|-----------------|-----------------|-------------3---|-2-3-2-0-----2---|
|-----5h6p5---8---|-7-5-3---3---0---|-1---------------|---------3-------|
|-0---------------|-----------------|-----------------|-----------------|
| |
| |
| E E E E E E E E E E E E E E E E E E E E E E E E E E E E E E E E |
|-----------------|-----------------|-----------------|-----------------|
|-----------------|-----------------|-----------------|-----------------|
|-----------------|-5-5-5-5-5-5-5-5-|-3-3-3-3-3-3-3-3-|-5-5-5-5-5-5-5-5-|
|-----------------|-5-5-5-5-5-5-5-5-|-3-3-3-3-3-3-3-3-|-5-5-5-5-5-5-5-5-|
|-0-0-0-0-0-0-0-0-|-3-3-3-3-3-3-3-3-|-1-1-1-1-1-1-1-1-|-3-3-3-3-3-3-3-3-|
|-0-0-0-0-0-0-0-0-|-----------------|-----------------|-----------------|



Q E E Q Q Q E E Q E E Q E E Q Q E E E E Q Q
|-----------------|-----------------|------------------|-----------------|
|-----------------|-----------------|------------------|-----------------|
|-----------------|-----------------|------------------|-----------------|
|-----------------|-----5-7-5---7-8-|-7---8-10-8---7---|-5-7-5-----------|
|-----5h6p5---8---|-7---------------|------------------|-------8-7---8---|
|-0---------------|-----------------|------------------|-----------------|
| |
| |
| E E E E E E E E E E E E E E E E E E E E E E E E E E E E E E E E |
|-----------------|-----------------|------------------|-----------------|
|-----------------|-----------------|------------------|-----------------|
|-----------------|-5-5-5-5-5-5-5-5-|-3-3-3--3-3-3-3-3-|-5-5-5-5-5-5-5-5-|
|-----------------|-5-5-5-5-5-5-5-5-|-3-3-3--3-3-3-3-3-|-5-5-5-5-5-5-5-5-|
|-0-0-0-0-0-0-0-0-|-3-3-3-3-3-3-3-3-|-1-1-1--1-1-1-1-1-|-3-3-3-3-3-3-3-3-|
|-0-0-0-0-0-0-0-0-|-----------------|------------------|-----------------|



Q E E Q Q E E Q Q Q Q E E Q Q E E E E Q Q
|-----------------|-----------------|-----------------|-----------------|
|-----------------|-----------------|-----------------|-----------------|
|-----------------|-----------------|-----0h2p0-------|-----------------|
|-----------------|-----------------|-------------3---|-2-3-2-0-----2---|
|-----5h6p5---8---|-7-5-3---3---0---|-1---------------|---------3-------|
|-0---------------|-----------------|-----------------|-----------------|
| |
| |
| E E E E E E E E E E E E E E E E E E E E E E E E E E E E E E E E |
|-----------------|-----------------|-----------------|-----------------|
|-----------------|-----------------|-----------------|-----------------|
|-----------------|-5-5-5-5-5-5-5-5-|-3-3-3-3-3-3-3-3-|-5-5-5-5-5-5-5-5-|
|-----------------|-5-5-5-5-5-5-5-5-|-3-3-3-3-3-3-3-3-|-5-5-5-5-5-5-5-5-|
|-0-0-0-0-0-0-0-0-|-3-3-3-3-3-3-3-3-|-1-1-1-1-1-1-1-1-|-3-3-3-3-3-3-3-3-|
|-0-0-0-0-0-0-0-0-|-----------------|-----------------|-----------------|



Q E E Q Q Q E E Q E E Q E E Q Q E E E E Q Q
|-----------------|-----------------|------------------|-----------------|
|-----------------|-----------------|------------------|-----------------|
|-----------------|-----------------|------------------|-----------------|
|-----------------|-----5-7-5---7-8-|-7---8-10-8---7---|-5-7-5-----------|
|-----5h6p5---8---|-7---------------|------------------|-------8-7---8---|
|-0---------------|-----------------|------------------|-----------------|
| |
| |
| E E E E E E E E E E E E E E E E E E E E E E E E E E E E E E E E |
|-----------------|-----------------|------------------|-----------------|
|-----------------|-----------------|------------------|-----------------|
|-----------------|-5-5-5-5-5-5-5-5-|-3-3-3--3-3-3-3-3-|-5-5-5-5-5-5-5-5-|
|-----------------|-5-5-5-5-5-5-5-5-|-3-3-3--3-3-3-3-3-|-5-5-5-5-5-5-5-5-|
|-0-0-0-0-0-0-0-0-|-3-3-3-3-3-3-3-3-|-1-1-1--1-1-1-1-1-|-3-3-3-3-3-3-3-3-|
|-0-0-0-0-0-0-0-0-|-----------------|------------------|-----------------|



Q E E Q Q E E Q Q Q Q E E Q Q E E E E Q Q
|-----------------|-----------------|-----------------|-----------------|
|-----------------|-----------------|-----------------|-----------------|
|-----------------|-----------------|-----0h2p0-------|-----------------|
|-----------------|-----------------|-------------3---|-2-3-2-0-----2---|
|-----5h6p5---8---|-7-5-3---3---0---|-1---------------|---------3-------|
|-0---------------|-----------------|-----------------|-----------------|
| |
| |
| E E E E E E E E E E E E E E E E E E E E E E E E E E E E E E E E |
|-----------------|-----------------|-----------------|-----------------|
|-----------------|-----------------|-----------------|-----------------|
|-----------------|-5-5-5-5-5-5-5-5-|-3-3-3-3-3-3-3-3-|-5-5-5-5-5-5-5-5-|
|-----------------|-5-5-5-5-5-5-5-5-|-3-3-3-3-3-3-3-3-|-5-5-5-5-5-5-5-5-|
|-0-0-0-0-0-0-0-0-|-3-3-3-3-3-3-3-3-|-1-1-1-1-1-1-1-1-|-3-3-3-3-3-3-3-3-|
|-0-0-0-0-0-0-0-0-|-----------------|-----------------|-----------------|



Q E E Q Q Q E E Q E E Q E E Q Q E E E E Q Q
|-----------------|-----------------|------------------|-----------------|
|-----------------|-----------------|------------------|-----------------|
|-----------------|-----------------|------------------|-----------------|
|-----------------|-----5-7-5---7-8-|-7---8-10-8---7---|-5-7-5-----------|
|-----5h6p5---8---|-7---------------|------------------|-------8-7---8---|
|-0---------------|-----------------|------------------|-----------------|
| |
| |
| E E E E E E E E E E E E E E E E E E E E E E E E E E E E E E E E |
|-----------------|-----------------|------------------|-----------------|
|-----------------|-----------------|------------------|-----------------|
|-----------------|-5-5-5-5-5-5-5-5-|-3-3-3--3-3-3-3-3-|-5-5-5-5-5-5-5-5-|
|-----------------|-5-5-5-5-5-5-5-5-|-3-3-3--3-3-3-3-3-|-5-5-5-5-5-5-5-5-|
|-0-0-0-0-0-0-0-0-|-3-3-3-3-3-3-3-3-|-1-1-1--1-1-1-1-1-|-3-3-3-3-3-3-3-3-|
|-0-0-0-0-0-0-0-0-|-----------------|------------------|-----------------|



Q E E Q Q E E Q Q Q Q E E Q Q E E E E Q Q
|-----------------|-----------------|-----------------|-----------------|
|-----------------|-----------------|-----------------|-----------------|
|-----------------|-----------------|-----0h2p0-------|-----------------|
|-----------------|-----------------|-------------3---|-2-3-2-0-----2---|
|-----5h6p5---8---|-7-5-3---3---0---|-1---------------|---------3-------|
|-0---------------|-----------------|-----------------|-----------------|
| |
| |
| E E E E E E E E E E E E E E E E E E E E E E E E E E E E E E E E |
|-----------------|-----------------|-----------------|-----------------|
|-----------------|-----------------|-----------------|-----------------|
|-----------------|-5-5-5-5-5-5-5-5-|-3-3-3-3-3-3-3-3-|-5-5-5-5-5-5-5-5-|
|-----------------|-5-5-5-5-5-5-5-5-|-3-3-3-3-3-3-3-3-|-5-5-5-5-5-5-5-5-|
|-0-0-0-0-0-0-0-0-|-3-3-3-3-3-3-3-3-|-1-1-1-1-1-1-1-1-|-3-3-3-3-3-3-3-3-|
|-0-0-0-0-0-0-0-0-|-----------------|-----------------|-----------------|



Q E E Q Q Q E E Q E E Q E E Q Q E E E E Q Q
|-----------------|-----------------|------------------|-----------------*||
|-----------------|-----------------|------------------|-----------------*||
|-----------------|-----------------|------------------|-----------------*||
|-----------------|-----5-7-5---7-8-|-7---8-10-8---7---|-5-7-5-----------*||
|-----5h6p5---8---|-7---------------|------------------|-------8-7---8---*||
|-0---------------|-----------------|------------------|-----------------*||
| ||
| ||
| E E E E E E E E E E E E E E E E E E E E E E E E E E E E E E E E ||
|-----------------|-----------------|------------------|-----------------*||
|-----------------|-----------------|------------------|-----------------*||
|-----------------|-5-5-5-5-5-5-5-5-|-3-3-3--3-3-3-3-3-|-5-5-5-5-5-5-5-5-*||
|-----------------|-5-5-5-5-5-5-5-5-|-3-3-3--3-3-3-3-3-|-5-5-5-5-5-5-5-5-*||
|-0-0-0-0-0-0-0-0-|-3-3-3-3-3-3-3-3-|-1-1-1--1-1-1-1-1-|-3-3-3-3-3-3-3-3-*||
|-0-0-0-0-0-0-0-0-|-----------------|------------------|-----------------*||

Like us on Facebook.....
-> Loading Time :0.0177 sec