Tremor Christ Tabs & Lyrics by Pearl Jam

Tremor Christ

guitar tabs lyrics

Pearl Jam

Album : Vitalogy grunge PlayStop



tmvtzet@cs.vu.nl (Zet van 't TM)


I saw the version posted earlier, but it didn't look/sound
right.. So here's my version. No offense to the previous poster :-)


"Tremor Christ" - Pearl Jam
From the album 'Vitalogy'
Tab transcription by Mark van 't Zet (tmvtzet@cs.vu.nl)INTRO/VERSE - Main riff, distorted. Play this as hammer ons

and pull offs, and let strings 1 and 2 ring.
I believe this ringing stuff is only done
in the intro.

A7 G#7
--(0)-(0)-(0)-(0)-(0)-(0)-(0)-(0)-(0)-(0)-(0)-(0)-(0)-(0)
-8(0)8(0)8(0)8(0)8(0)8(0)8(0)8(0)7(0)7(0)7(0)7(0)7(0)7(0)
-6---6---6---6---6---6---6---6---5---5---5---5---5---5--
-7---7---7---7---7---7---7---7---6---6---6---6---6---6--
--------------------------------------------------------
--------------------------------------------------------

Fill during verse
--(0)-(0)-- --5--8--7~~~--
-7(0)7(0)-- --------------
-5---5----- --------------
-6---6----- --------------
----------- --------------
----------- --------------


CHORUS - Upper & lower part played by different guitars

F#6 (implied) G#
-----------------------------------
-2h4~~~---------------2h4~~~-------
-----------------------------------
---------4-4-4-4-4----x------6--6--
---------4-4-4-4-4----x------6--6--
---------2-2-2-2-2----x------4--4--


BRIDGE 1 - Arpeggio

A7 G#7
-----------------------------------
-----8-----8---------7-----7-------
---6-----6-----6---5-----5-----5---
-7-----7-----7---6-----6-----6-----
-----------------------------------
-----------------------------------


VERSE


CHORUS


BRIDGE 2

A7 G#7
-----------------------------------
-----8b10r8~~--------7b9r7---------
---6---------------5---------------
-7---------------6-----------------
-----------------------------------
-----------------------------------


BRIDGE 3 - Play main riff, add wah-flavour


CHORUS

Like us on Facebook.....
-> Loading Time :0.0102 sec