Too Far Gone Chords & Lyrics by Dead Moon

Too Far Gone

guitar chords lyrics

Dead Moon

Album : Crack in the System albums i own PlayStop




Too Far Gone (Fred Cole)



INTRO + VERSE:
E|----------------------|
B|-----0-0--0-0h1-0-----|
G|-------0--------0-----| (2x)
D|---2------------------|

A|---2---2--------------|
E|--0----3----3---------|
Em G

Em G Em G
Down to Dixon, razor's edge
Cuts like water, runs so red
A Em G Em G
And now, too far gone
A Em G Em G
Asked myself "What the hell went wrong?"

Em G

Too many windows, looking in
They can see you but you can't see them
And now, too far gone
Asked myself "What the hell went wrong?"

Into the white room, tracks on the wall
Maybe it's a nightmare, really nothing at all
But now, too far gone
And I asked myself "What the hell went wrong?"

Ain't no reason for you to feel had
I gave it my best shot, it just went bad
And now, too far gone
A Em Em
And I asked myself "What the hell went wrong?"




E|-------------0--0--0--|
B|---0----0----0--1--3--|
G|---0----0----2--2--2--|
D|---2----0----2--2--2--|
A|---2----2----0--0--0--|
E|---0----3----0--0--0--|
Em G A



Dead Moon:
Fred Cole- Guitar, Vocals
Toody Cole- Bass, Vocals
Andrew Loomis- Drums


"Too Far Gone" on "Crack In The System" LP (Tombstone Records, T-55, 1994)

Like us on Facebook.....
-> Loading Time :0.0067 sec