To the Enemies of Political Rock Tabs & Lyrics by Team Dresch

To the Enemies of Political Rock

guitar tabs lyrics

Team Dresch

Album : Captain My Captain rock PlayStop



4/4

Intro and Verse:

Gtr II
W W W H E Q.
|----------------|-----------------|----------------|----------------------|
|----------------|-----------------|----------------|----------------------|
|----------------|-----------------|-14-------------|-----------12-12------|
|----------------|-----------------|-14-------------|-----------12-12------|

|----------------|-----------------|-12-------------|-----------10-10------|
|----------------|-----------------|----------------|----------------------|
|
| Gtr I
| E Q E Q E E +E E E E Q Q E Q E Q E E +E E E E Q Q
|----------------|-----------------|----------------|----------------------|
|----------------|-----------------|----------------|----------------------|
|----------------|-----------------|----------------|----------------------|
|----------------|-----------5--5--|----------------|------------5-----5---|
|---4-----4----4-|-(4)---4---2--2--|----4----4----4-|-(4)---4----2-----2---|
|-3-----3----3---|-----3---3-------|--3----3----3---|-----3---3------------|


4/4
E E H. H E Q.
|--------------------|---------------------|
|--------------------|---------------------|
|---14-14------------|-----------12-12-----|
|---14-14------------|-----------12-12-----|
|---12-12------------|-----------10-10-----|
|--------------------|---------------------|
|
| Gtr I
| E Q E Q E E +E E E E Q Q
|--------------------|---------------------|
|--------------------|---------------------|
|--------------------|---------------------|
|--------------------|------------5-----5--|
|-------4-----4----4-|-(4)---4----2-----2--|
|----3------3----3---|-----3---3-----------|


E E H. H E Q.
|--------------------|--------------------|
|--------------------|--------------------|
|---14-14------------|-----------12-12----|
|---14-14------------|-----------12-12----|
|---12-12------------|-----------10-10----|
|--------------------|--------------------|
|
| E Q E Q E E +E E E E Q Q
|--------------------|--------------------|
|--------------------|--------------------|
|--------------------|--------------------|
|--------------------|------------5-----5-|
|-------4-----4----4-|-(4)---4----2-----2-|
|----3------3----3---|-----3---3----------|

Chorus Part

E E Q H Q. E H
|------------------|-------------------|
|---12-12--12------|-10-----10---------|
|---11-11--11------|--9------9---------|
|----9--9---9------|--7------7---------|
|------------------|-------------------|
|------------------|-------------------|
|
| E E Q Q E E Q E E E E E E
|------------------|-------------------|
|------------------|-------------------|
|----4--4---4--4---|-------------------|
|----4--4---4--4---|--7---7------------|
|----2--2---2--2---|--7---7------------|
|------------------|--5---5--0-2-0-2-0-|


E E Q H Q. E E E E E
|------------------|---------------------|
|---12-12--12------|-10------------------|
|---11-11--11------|--9-----9-11-12-11-9-|
|----9--9---9------|--7------------------|
|------------------|---------------------|
|------------------|---------------------|
|
| E E Q Q E E Q E E E E E E
|------------------|---------------------|
|------------------|---------------------|
|----4--4---4--4---|---------------------|
|----4--4---4--4---|--7---7--------------|
|----2--2---2--2---|--7---7--------------|
|------------------|--5---5-0--2--0--2-0-|



Solo and Outro

E Q E Q E E +E E E E Q Q E Q E Q E E +E E E E Q Q
|----------------|-------------------|-----------------|--------------------|
|----------------|-------------------|-----------------|--------------------|
|----------------|-------------------|-----------------|--------------------|
|----------------|-----------5---5---|-----------------|-----------5---5----|
|---4----4-----4-|-(4)---4---2---2---|---4-----4-----4-|-(4)---4---2---2----|
|-3----3-----3---|-----3---3---------|-3-----3-----3---|-----3---3----------|
|
| H E E E E E E E E E E E E E E E E E E E E E E E E E E E E
|----------------|-------------------|-----------------|--------------------|
|----------------|-------------------|-----------------|--------------------|
|----------------|-------------------|-----------------|--------------------|
|----------7-5-4-|-----4-------------|---------7-5-4---|-----4--------------|
|----------------|--7----7-5-4-5-4---|---4-5-7-------5-|--7----7-5-4-5-4----|
|----------------|-----------------5-|-7---------------|-----------------5--|


E Q E Q E E +E E E E Q Q E Q E Q E E +E E E E Q Q
|-----------------|-------------------|-----------------|-------------------|
|-----------------|-------------------|-----------------|-------------------|
|-----------------|-------------------|-----------------|-------------------|
|-----------------|-----------5---5---|-----------------|-----------5---5---|
|---4-----4-----4-|-(4)---4---2---2---|---4-----4-----4-|-(4)---4---2---2---|
|-3-----3-----3---|-----3---3---------|-3-----3-----3---|-----3---3---------|
|
| E E E E E E E E E E E E E E E E E E E E E E E E E E E E E E E E
|-----------------|-------------------|-----------------|-------------------|
|-----------------|-------------------|-----------------|-------------------|
|-----------------|-------------------|-----------------|-------------------|
|---------7-5-4---|-----4-------------|---------7-5-4---|-----4-------------|
|---4-5-7-------5-|--7----7-5-4-5-4---|---4-5-7-------5-|--7----7-5-4-5-4---|
|-7---------------|-----------------5-|-7---------------|-----------------5-|
|
| Gtr III
| E E E E E E E E E E E E E E E E E E E E E E E E E E E E E E E E
|-----------------|-------------------|-----------------|-------------------|
|---------7-5-4---|-----4-------------|---------7-5-4---|-----4-------------|
|---4-5-7-------5-|--7----7-5-4-5-4---|---4-5-7-------5-|--7----7-5-4-5-4---|
|-7---------------|-----------------5-|-7---------------|-----------------5-|


W +H H W +H H
|-----------------|-------------------|-----------------|--------------------|
|-----------------|-------------------|-7---------------|-(7)-------10-------|
|-7---------------|-(7)-------9-------|-----------------|--------------------|
|-----------------|-------------------|-----------------|--------------------|
|-----------------|-------------------|-----------------|--------------------|
|-----------------|-------------------|-----------------|--------------------|
|
| E E E E E E E E E E E E E E E E E E E E E E E E E E E E E E E E
|-----------------|-------------------|-----------------|--------------------|
|-----------------|-------------------|-----------------|--------------------|
|-----------------|-------------------|-----------------|--------------------|
|---------7-5-4---|-----4-------------|---------7-5-4---|-----4--------------|
|---4-5-7-------5-|--7----7-5-4-5-4---|---4-5-7-------5-|--7----7-5--4-5-4---|
|-7---------------|-----------------5-|-7---------------|------------------5-|


W +H H W +H H
|-----------------|-------------------|-----------------|--------------------|
|-----------------|-------------------|-7---------------|-(7)-------10-------|
|-7---------------|-(7)-------9-------|-----------------|--------------------|
|-----------------|-------------------|-----------------|--------------------|
|-----------------|-------------------|-----------------|--------------------|
|-----------------|-------------------|-----------------|--------------------|
|
| E E E E E E E E E E E E E E E E E E E E E E E E E E E E E E E E
|-----------------|-------------------|-----------------|--------------------|
|-----------------|-------------------|-----------------|--------------------|
|-----------------|-------------------|-----------------|--------------------|
|---------7-5-4---|-----4-------------|---------7-5-4---|-----4--------------|
|---4-5-7-------5-|--7----7-5-4-5-4---|---4-5-7-------5-|--7----7-5--4-5-4---|
|-7---------------|-----------------5-|-7---------------|------------------5-|


W W W W W
|----------|---------|--------|-------------|--------*|
|----------|---------|--------|-------------|--------*|
|-7--------|---------|--------|-------------|--------*|
|----------|---------|--------|-------------|--------*|
|----------|---------|--------|-------------|--------*|
|----------|---------|--------|-------------|--------*|
|
| W H H W +W W
|----------|---------|--------|-------------|--------*|
|----------|---------|--------|-------------|--------*|
|----------|---------|--------|-------------|--------*|
|----------|---------|--------|-------------|--------*|
|-2--------|------4--|---2----|-(2)---------|--------*|
|-3--------|------3--|---3----|-(3)---------|--------*|


Like us on Facebook.....
-> Loading Time :0.0188 sec