There You Are Tabs & Lyrics by Goo Goo Dolls

There You Are

guitar tabs lyrics

Goo Goo Dolls

Album : Hold Me Up rock PlayStop



This is a very simple and fun song once you get the hang of the rhythm and how it is
I have seen many incorrect tabbings so here is what i found as 100% correct.

Tuning:E A D F# B F#


Intro tab Guitar 1-play the g and b strings together
----------------------------|
---0---0--0---0--0----------|
--12--10--9--10--9----------|

----------------------------|
----------------------------|
----------------------------| repeat 10x

Intro chords Guitar 2:
Em-B5-G#5-F#5

Verse:
G#5-B5-E5-B5
(There are two different rhythms for the verse the second is simply a constant
on the strings

Pre-Chorus Guitar 1:
F#5

Pre-Chorus Guitar 2:
------------------------------------------------|
------------------------------------------------|
------------------------------------------------|
----------4-4-4--2-2-2--4-4-4-4-4---------------|
------4-4---------------------------------------|
--2-2-------------------------------------------|

Chorus Guitar 1:
----------------------------|
---0---0--0---0--0----------|
--12--10--9--10--9----------|
----------------------------|
----------------------------|
----------------------------| repeat 8x

Chords over solo:
G#5-B5-E5-B5

Outro ("There you are")-the last one
G#5-F#5-E5-Eb5-C#5-B5


There it is. It's gotta be one of the funnest songs to play.
Peace

Like us on Facebook.....
-> Loading Time :0.0091 sec