The Killer Inside Tabs & Lyrics by Better Than Ezra

The Killer Inside

guitar tabs lyrics

Better Than Ezra

Album : Deluxe 90s PlayStop


e Killer Inside - Better Than Ezra
tabbed by Steve Vetter [vettersj@aol.com], corrected by arandell@students.wisc.edu (I fixed the "d" chord to a "c" in the chorus)

Intro/main riff:

--0--------------------------------------
----3-2------3-----3----3----------------
-----------2-----2----2------------------
---------0-------------------------------
---------------3----2--------------------
--------------------------3--------------


Riff 2:

-----------------------------------------------------
-----------------------------------------------------
-----------------------------------------------------
----------5-3-2-0---5h7b5---------5-3-5h7b5-3-2------
--0--5-7-------------------0--5-7--------------------
-----------------------------------------------------


She believes
that I'd be better off without her
And she believes in me

Well she believes
that time can make things right (yeah)
And I wanna believe
there's been a change in me

Cadd9 G
And Iiiiiiiiiiiiiiiii
A G
Hope that she believes
Cadd9 G
'Cause Iiiiiiiiiiiiii
A G
wonder if she sees
the killer inside me


The lights go down
And the clouds are building outside
you close the door and turn the key
but there's no place to hide

Chorus
solo

Chorus


Like us on Facebook.....
-> Loading Time :0.0391 sec