The Art of Subconscious Illusion Tabs & Lyrics by Avenged Sevenfold

The Art of Subconscious Illusion

guitar tabs lyrics

Avenged Sevenfold

Album : Sounding the Seventh Trumpet metalcore PlayStop



THE ART OF SUBCONSCIOUS ILLUSION
As recorded by Avenged Sevenfold
(From the 2002 Album SOUNDING THE SEVENTH TRUMPET)



Gtr I (D A D G B E) - 'Zacky V'
Gtr II (D A D G B E) - 'Zacky V'

|- Q=110

|- 4/4
Gtr I
PM| PM| PM PM| PM| PM PM| PM| PM
S S S S S S S S S S S S S S S S S S S S S S S S E E E E
||---------------------------------|-------------------------|
||---------------------------------|-------------------------|
||-5-----5-----5---6-----6-----6---|-5-----5-----5---3-3-3-3-|
||-5-5-5-5-5-5-5-5-6-6-6-6-6-6-6-6-|-5-5-5-5-5-5-5-5-3-3-3-3-|
||-3-3-3-3-3-3-3-3-4-4-4-4-4-4-4-4-|-3-3-3-3-3-3-3-3-1-1-1-1-|
||---------------------------------|-------------------------|



Gtrs I, II
E S E S S S E S E S S S E S E S S S E E E E
|-------------------------|-----------------------|
|-------------------------|-----------------------|
|-5-5-5-5-5-5-------------|-8-8-8-8-8-8-----10----|
|-5-5-5-5-5-5-6-6-6-6-6-6-|-8-8-8-8-8-8-8-8--8-11-|
|-3-3-3-3-3-3-6-6-6-6-6-6-|-6-6-6-6-6-6-8-8-----9-|
|-------------6-6-6-6-6-6-|-------------8-8-------|



PM--------------------|
E S E S S S E S E S S S S S S S S S S S S S S S E E
|-------------------------|-----------------------------|
|-------------------------|-----------------------------|
|-5-5-5-5-5-5-------------|-----------------------------|
|-5-5-5-5-5-5-6-6-6-6-6-6-|-------------------------2-2-|
|-3-3-3-3-3-3-6-6-6-6-6-6-|-2-2-2-2-2-2-2-2-2-2-2-2-2-2-|
|-------------6-6-6-6-6-6-|-2-2-2-2-2-2-2-2-2-2-2-2-2-2-|



PM----------------------| PM------------|
S S S S S S S S S S S S S S E S S S S S S S S E E E E
|-------------------------------|-------------------------|
|-------------------------------|-------------------------|
|-------------------------------|-------------------------|
|-------------------------------|-----------------1-1-3-3-|
|-5-3-5-6-5-3-0-3-5-3-5-6-5-3-2-|-5-3-5-6-5-3-0-3-1-1-3-3-|
|-5-3-5-6-5-3-0-3-5-3-5-6-5-----|-5-3-5-6-5-3-0-3-1-1-3-3-|



PM----------------------| PM------------|
S S S S S S S S S S S S S S E S S S S S S S S E E E E
|-------------------------------|-------------------------|
|-------------------------------|-------------------------|
|-------------------------------|-------------------------|
|-------------------------------|-----------------1-1-3-3-|
|-5-3-5-6-5-3-0-3-5-3-5-6-5-3-2-|-5-3-5-6-5-3-0-3-1-1-3-3-|
|-5-3-5-6-5-3-0-3-5-3-5-6-5-----|-5-3-5-6-5-3-0-3-1-1-3-3-|



S S S S S S S S S S S S S S E S S S S S S S S E E E E
|-------------------------------|-------------------------|
|-------------------------------|-------------------------|
|-------------------------------|-------------------------|
|-5-3-5-6-5-3-0-3-5-3-5-6-5-5-4-|-5-3-5-6-5-3-0-3-1-1-3-3-|
|-5-3-5-6-5-3-0-3-5-3-5-6-5-3-2-|-5-3-5-6-5-3-0-3-1-1-3-3-|
|-5-3-5-6-5-3-0-3-5-3-5-6-5-----|-5-3-5-6-5-3-0-3-1-1-3-3-|



S S S S S S S S S S S S S S E S S S S S S S S Q Q
|-------------------------------|---------------------|
|-------------------------------|---------------------|
|-------------------------------|---------------------|
|-5-3-5-6-5-3-0-3-5-3-5-6-5-5-4-|-5-3-5-6-5-3-0-3-1-3-|
|-5-3-5-6-5-3-0-3-5-3-5-6-5-3-2-|-5-3-5-6-5-3-0-3-1-3-|
|-5-3-5-6-5-3-0-3-5-3-5-6-5-----|-5-3-5-6-5-3-0-3-1-3-|



Gtr I
H Q Q Q Q Q Q H Q Q H Q Q
|-------|-----------|-------|-------|
|-------|-----------|-------|-------|
|-------|-----------|-------|-------|
|-0-1-3-|-0-[5]-1-3-|-0-1-3-|-0-1-3-|
|-0-1-3-|-0-----1-3-|-0-1-3-|-0-1-3-|
|-0-1-3-|-0-----1-3-|-0-1-3-|-0-1-3-|
| |
|Gtr II |
| H Q Q H Q Q H Q Q H Q Q |
|-------|-----------|-------|-------|
|-------|-----------|-------|-------|
|-------|-----------|-------|-------|
|-0-1-3-|-0-----1-3-|-0-1-3-|-0-1-3-|
|-0-1-3-|-0-----1-3-|-0-1-3-|-0-1-3-|
|-0-1-3-|-0-----1-3-|-0-1-3-|-0-1-3-|


GtrS I, II
PM--------------------------------------------------------------|
S S S S S S S S S S S S S S S S S S S S S S S S S S S S S S S S
|---------------------------------|---------------------------------|
|---------------------------------|---------------------------------|
|---------------------------------|---------------------------------|
|---------------------------------|---------------------------------|
|-0-0-0-0-0-0-0-0-1-1-1-1-3-3-3-3-|-0-0-0-0-0-0-0-0-1-1-1-1-3-3-3-3-|
|-0-0-0-0-0-0-0-0-1-1-1-1-3-3-3-3-|-0-0-0-0-0-0-0-0-1-1-1-1-3-3-3-3-|



PM------------------------------------------------------|
S S S S S S S S S S S S S S S S S S S S S S S S S S S S S E.
|---------------------------------|------------------------------|
|---------------------------------|------------------------------|
|---------------------------------|------------------------------|
|---------------------------------|------------------------------|
|-0-0-0-0-0-0-0-0-1-1-1-1-3-3-3-3-|-0-0-0-0-0-0-0-0-1-1-1-1-3----|
|-0-0-0-0-0-0-0-0-1-1-1-1-3-3-3-3-|-0-0-0-0-0-0-0-0-1-1-1-1-3----|



Gtr I
PM| PM| PM| PM| PM|
S S S S S S E S S S S S S E S S S S S S E S S S S S S S S
|------------------------------|-------------------------------|
|----------------------------8-|-------------------------------|
|-7-----7-----8-7-----7-8-10---|-7-----7-----8-----------------|
|---5-5---5-5-----5-5----------|---5-5---5-5---5-8-7-5---5-----|
|------------------------------|-----------------------8---6-5-|
|------------------------------|-------------------------------|
| |
|Gtr II |
| E E Q E E Q E E Q S S S S S S S S |
|------------------------------|-------------------------------|
|------------------------------|-------------------------------|
|------------------------------|-------------------------------|
|-0-------------0--------------|-0-------------5-8-7-5---5-----|
|-0-------------0--------------|-0---------------------8---6-5-|
|-0-------------0--------------|-0-----------------------------|


PM| PM| PM| PM| PM|
S S S S S S E S S S S S S E S S S S S S E S S S S S S S S
|--------------------------------|-------------------------------|
|----------------------------8---|-------------------------------|
|-7-----7-----8-7-----7-8-10-----|-7-----7-----8-----------------|
|---5-5---5-5-----5-5------------|---5-5---5-5---5-8-7-5---5-----|
|--------------------------------|-----------------------8---6-5-|
|--------------------------------|-------------------------------|
| |
| |
| E E Q S S S S S S S S E E Q S S S S S S S S |
|--------------------------------|-------------------------------|
|--------------------------------|-------------------------------|
|--------------------------------|-------------------------------|
|-0-------------0---0-0----0-0---|-0-------------5-8-7-5---5-----|
|-0-------------0---0-0----0-0---|-0---------------------8---6-5-|
|-0-------------0---0-0----0-0---|-0-----------------------------|


PM| PM| PM| PM| PM|
S S S S S S E S S S S S S E S S S S S S E S S S S S S S S
|----------------------------------|---------------------------------|
|------------------------------8---|---------------------------------|
|-7-----7-----8---7-----7-8-10-----|-7-----7-----8-------------------|
|---5-5---5-5-------5-5------------|---5-5---5-5-----5-8-7-5---5-----|
|----------------------------------|-------------------------8---6-5-|
|----------------------------------|---------------------------------|
| |
| |
| S E S E S S S E S E S S S E S E S S S E S E S S |
|----------------------------------|---------------------------------|
|----------------------------------|---------------------------------|
|----------------------------------|---------------------------------|
|-------------1---------------3----|-------------1---------------3---|
|-0-----0-----1---0-----0-----3----|-0-----0-----1---0-----0-----3---|
|-0-----0-----1---0-----0-----3----|-0-----0-----1---0-----0-----3---|


PM| PM| PM| PM| PM|
S S S S S S E S S S S S S E S S S S S S E S S S S S S S S
|----------------------------------|---------------------------------|
|------------------------------8---|---------------------------------|
|-7-----7-----8---7-----7-8-10-----|-7-----7-----8-------------------|
|---5-5---5-5-------5-5------------|---5-5---5-5-----5-8-7-5---5-----|
|----------------------------------|-------------------------8---6-5-|
|----------------------------------|---------------------------------|
| |
| |
| S E S E S S S E S E S S S E S E S S S E S E S S |
|----------------------------------|---------------------------------|
|----------------------------------|---------------------------------|
|----------------------------------|---------------------------------|
|-------------1---------------3----|-------------1---------------3---|
|-0-----0-----1---0-----0-----3----|-0-----0-----1---0-----0-----3---|
|-0-----0-----1---0-----0-----3----|-0-----0-----1---0-----0-----3---|




S E S E E S E S S E. S E S E E S S S S S S S S
|----------------------------|-----------------------------|
|-------------------6-8------|-----------------------------|
|-7---7---8---7---7-8--------|-7---7---8-------------------|
|----------------------------|-------------5-8-7-5---5-----|
|----------------------------|---------------------8---6-5-|
|----------------------------|-----------------------------|
| |
| |
| S E S E S S S E S E S S S E S E S S S E S E S S |
|----------------------------|-----------------------------|
|----------------------------|-----------------------------|
|----------------------------|-----------------------------|
|---------1--------------3---|---------1---------------3---|
|-0---0---1---0---0------3---|-0---0---1---0-----0-----3---|
|-0---0---1---0---0------3---|-0---0---1---0-----0-----3---|



S E S E E S E S S E S S E S E E S S S S S S S S
|-----------------------------|-----------------------------|
|--------------------------8--|-----------------------------|
|-7---7---8---7---7-8-10------|-7---7---8-------------------|
|-----------------------------|-------------5-8-7-5---5-----|
|-----------------------------|---------------------8---6-5-|
|-----------------------------|-----------------------------|
| |
| |
| S E S E S S S E S E S S S E S E S S S E S E S S |
|-----------------------------|-----------------------------|
|-----------------------------|-----------------------------|
|-----------------------------|-----------------------------|
|---------1-------------3-----|---------1---------------3---|
|-0---0---1---0---0-----3-----|-0---0---1---0-----0-----3---|
|-0---0---1---0---0-----3-----|-0---0---1---0-----0-----3---|



S S S S S S S S S S S S S S S S S S S S S S S S S S S S S S S S
|---------------------------------|---------------------------------|
|---------------------------------|---------------------------------|
|---------------------------------|---------------------------------|
|-5-8-7-5---5-----5-8-7-5---5-----|-5-8-7-5---5-----5-8-7-5---5-----|
|---------8---6-5---------8---6-5-|---------8---6-5---------8---6-5-|
|---------------------------------|---------------------------------|
| |
| |
| E E Q E E Q E E Q E E Q |
|---------------------------------|---------------------------------|
|---------------------------------|---------------------------------|
|---------------------------------|---------------------------------|
|-0---------------0---------------|-0---------------0---------------|
|-0---------------0---------------|-0---------------0---------------|
|-0---------------0---------------|-0---------------0---------------|



S S S S S S S S S S S S S S S S S S S S S S S S S S S S S S S S
|---------------------------------|---------------------------------|
|---------------------------------|---------------------------------|
|---------------------------------|---------------------------------|
|-5-8-7-5---5-----5-8-7-5---5-----|-5-8-7-5---5-----5-8-7-5---5-----|
|---------8---6-5---------8---6-5-|---------8---6-5---------8---6-5-|
|---------------------------------|---------------------------------|
| |
| |
| E E E E E E E E E E E E E E E E |
|---------------------------------|---------------------------------|
|---------------------------------|---------------------------------|
|---------------------------------|---------------------------------|
|-0---3---5---6---0---3---5---6---|-0---3---5---6---0---3---5---6---|
|-0---3---5---6---0---3---5---6---|-0---3---5---6---0---3---5---6---|
|-0---3---5---6---0---3---5---6---|-0---3---5---6---0---3---5---6---|



S S S S S S S S S S S S S S S S S S S S S S S S S S S S S S S S
|---------------------------------|---------------------------------|
|---------------------------------|---------------------------------|
|---------------------------------|---------------------------------|
|-5-8-7-5---5-----5-8-7-5---5-----|-5-8-7-5---5-----5-8-7-5---5-----|
|---------8---6-5---------8---6-5-|---------8---6-5---------8---6-5-|
|---------------------------------|---------------------------------|
| |
| |
| E E E E E E E E E E E E E E E E |
|---------------------------------|---------------------------------|
|---------------------------------|---------------------------------|
|---------------------------------|---------------------------------|
|-0---3---5---6---0---3---5---6---|-0---3---5---6---0---3---5---6---|
|-0---3---5---6---0---3---5---6---|-0---3---5---6---0---3---5---6---|
|-0---3---5---6---0---3---5---6---|-0---3---5---6---0---3---5---6---|



Gtr I
H Q Q Q Q Q Q
|-------|-----------|
|-------|-----------|
|-------|-----------|
|-0-1-3-|-0-[5]-1-3-|
|-0-1-3-|-0-----1-3-|
|-0-1-3-|-0-----1-3-|
| |
|Gtr II |
| H Q Q H Q Q |
|-------|-----------|
|-------|-----------|
|-------|-----------|
|-0-1-3-|-0-----1-3-|
|-0-1-3-|-0-----1-3-|
|-0-1-3-|-0-----1-3-|


Gtrs I, II
PM--------------------------------------------------------------|
S S S S S S S S S S S S S S S S S S S S S S S S S S S S S S S S
|---------------------------------|---------------------------------|
|---------------------------------|---------------------------------|
|---------------------------------|---------------------------------|
|---------------------------------|---------------------------------|
|-0-0-0-0-0-0-0-0-1-1-1-1-3-3-3-3-|-0-0-0-0-0-0-0-0-1-1-1-1-3-3-3-3-|
|-0-0-0-0-0-0-0-0-1-1-1-1-3-3-3-3-|-0-0-0-0-0-0-0-0-1-1-1-1-3-3-3-3-|


PM| PM| PM| PM| PM| PM|
E S S S S E E S S S S E E S S S S E Q Q E S S S S E E S S S S E E S S S S E Q Q
|-------------------------|-----------------|-------------------------|-----------------|
|-------------------------|-----------------|-------------------------|-----------------|
|-------------------------|-----------------|-------------------------|-----------------|
|-0-----------0---------5-|-0-----------1-3-|-0-----------0---------5-|-0-----------1-3-|
|-0-0-0-5h7-0-0-0-0-5h7---|-0-0-0-5h7-0-1-3-|-0-0-0-5h7-0-0-0-0-5h7---|-0-0-0-5h7-0-1-3-|
|-0-0-0-------0-0-0-------|-0-0-0-------1-3-|-0-0-0-------0-0-0-------|-0-0-0-------1-3-|


PM| PM| PM| PM| PM| PM|
E S S S S E E S S S S E E S S S S E Q Q E S S S S E E S S S S E E S S S S E Q Q
|-------------------------|-----------------|-------------------------|-----------------|
|-------------------------|-----------------|-------------------------|-----------------|
|-------------------------|-----------------|-------------------------|-----------------|
|-0-----------0---------5-|-0-----------1-3-|-0-----------0---------5-|-0-----------1-3-|
|-0-0-0-5h7-0-0-0-0-5h7---|-0-0-0-5h7-0-1-3-|-0-0-0-5h7-0-0-0-0-5h7---|-0-0-0-5h7-0-1-3-|
|-0-0-0-------0-0-0-------|-0-0-0-------1-3-|-0-0-0-------0-0-0-------|-0-0-0-------1-3-|


PM--------------------------------------------------------------|
H H S S S S S S S S S S S S S S S S S S S S S S S S S S S S S S S S
|-----|---------------------------------|---------------------------------|
|-----|---------------------------------|---------------------------------|
|-----|---------------------------------|---------------------------------|
|-0-6-|---------------------------------|---------------------------------|
|-0-6-|-5-3-5-6-5-3-0-3-5-3-5-6-5-3-0-3-|-5-3-5-6-5-3-0-3-5-3-5-6-5-3-0-3-|
|-0-6-|-5-3-5-6-5-3-0-3-5-3-5-6-5-3-0-3-|-5-3-5-6-5-3-0-3-5-3-5-6-5-3-0-3-|


PM--------------|
W W H E E E E E E E E E E E E
|---|---|-----------|-----------------|
|---|---|-----------|-----------------|
|-7-|---|-----------|-----------------|
|-7-|-6-|-5---------|-5-5-5-5-5-5-5-5-|
|-5-|-6-|-5-5-5-5-5-|-5-5-5-5-5-5-5-5-|
|---|-6-|-5-5-5-5-5-|-5-5-5-5-5-5-5-5-|


PM--------------|
W W H E E E E E E E E E E E E
|---|---|-----------|-----------------|
|---|---|-----------|-----------------|
|-7-|---|-----------|-----------------|
|-7-|-6-|-5---------|-5-5-5-5-5-5-5-5-|
|-5-|-6-|-5-5-5-5-5-|-5-5-5-5-5-5-5-5-|
|---|-6-|-5-5-5-5-5-|-5-5-5-5-5-5-5-5-|


Gtr I
W W W W W W W W W W W W W W
|----|----|----|----|----|----|----|----|----|----|----|----|----|----|
|----|----|----|----|----|----|----|----|----|----|----|----|----|----|
|----|----|----|----|----|----|----|----|----|----|----|----|----|----|
|-x\-|-x/-|----|----|-x\-|-x/-|----|----|-x\-|-x/-|----|----|-x\-|-x/-|
|-x\-|-x/-|----|----|-x\-|-x/-|----|----|-x\-|-x/-|----|----|-x\-|-x/-|
|-x\-|-x/-|----|----|-x\-|-x/-|----|----|-x\-|-x/-|----|----|-x\-|-x/-|
| |
|Gtr II |
| W W W W W W W W W W W W W W |
|----|----|----|----|----|----|----|----|----|----|----|----|----|----|
|----|----|----|----|----|----|----|----|----|----|----|----|----|----|
|----|----|----|----|----|----|----|----|----|----|----|----|----|----|
|----|----|-x\-|-x/-|----|----|-x\-|-x/-|----|----|-x\-|-x/-|----|----|
|----|----|-x\-|-x/-|----|----|-x\-|-x/-|----|----|-x\-|-x/-|----|----|
|----|----|-x\-|-x/-|----|----|-x\-|-x/-|----|----|-x\-|-x/-|----|----|


PM--------------|
H E E E E E E E E E E E E
|-----------|-----------------|
|-----------|-----------------|
|-----------|-----------------|
|-5---------|-5-5-5-5-5-5-5-5-|
|-5-5-5-5-5-|-5-5-5-5-5-5-5-5-|
|-5-5-5-5-5-|-5-5-5-5-5-5-5-5-|
| |
| |
| W W |
|-----------|-----------------|
|-----------|-----------------|
|-----------|-----------------|
|-x\--------|-x/--------------|
|-x\--------|-x/--------------|
|-x\--------|-x/--------------|



PM--------------|
W W H E E E E E E E E E E E E
|---|---|-----------|-----------------|
|---|---|-----------|-----------------|
|-7-|---|-----------|-----------------|
|-7-|-6-|-5---------|-5-5-5-5-5-5-5-5-|
|-5-|-6-|-5-5-5-5-5-|-5-5-5-5-5-5-5-5-|
|---|-6-|-5-5-5-5-5-|-5-5-5-5-5-5-5-5-|



PM--------------|
W W H E E E E E E E E E E E E
|---|---|-----------|-----------------|
|---|---|-----------|-----------------|
|-7-|---|-----------|-----------------|
|-7-|-6-|-5---------|-5-5-5-5-5-5-5-5-|
|-5-|-6-|-5-5-5-5-5-|-5-5-5-5-5-5-5-5-|
|---|-6-|-5-5-5-5-5-|-5-5-5-5-5-5-5-5-|



PM--------------|
W W H E E E E E E E E E E E E
|---|---|-----------|-----------------|
|---|---|-----------|-----------------|
|-7-|---|-----------|-----------------|
|-7-|-6-|-5---------|-5-5-5-5-5-5-5-5-|
|-5-|-6-|-5-5-5-5-5-|-5-5-5-5-5-5-5-5-|
|---|-6-|-5-5-5-5-5-|-5-5-5-5-5-5-5-5-|



W W W +W
|---|---|-------------------|-----*||
|---|---|-------------------|-----*||
|-7-|---|-------------------|-----*||
|-7-|-6-|-5-----------------|-(5)-*||
|-5-|-6-|-5-----------------|-(5)-*||
|---|-6-|-5-----------------|-(5)-*||
| ||
| ||
| W W W +E E E E W ||
|---|---|-------------------|-----*||
|---|---|-------------------|-----*||
|-7-|---|-------------------|-----*||
|-7-|-6-|-5-(5)-(5)-(5)-(5)-|-(5)-*||
|-5-|-6-|-5-(5)h=6p==5h==6p=|==5--*||
|---|-6-|-5-(5)-(5)-(5)-(5)-|-(5)-*||

Like us on Facebook.....
-> Loading Time :0.0153 sec