Stovebolt Tabs & Lyrics by Spineshank

Stovebolt

guitar tabs lyrics

Spineshank

Album : Strictly Diesel nu metal PlayStop



Artist - Spineshank
Song - Stovebolt
Album - Strickly Diesel


Tuning: Tune one and a half steps down.

Intro
|-------------------------------------------------|
|-------------------------------------------------|

|-------------------------------------------------|
|-------------------------------------------------|
|-7--7--7--10-10-10--6--6--6--6--6--6--9--9--9--9-|
|-------------------------------------------------|

Intro continued
|-------------------------------------------------|
|-------------------------------------------------|
|-9--------12--------8-----8-----8-----11-------11|
|-x---------x--------x-----x-----x-----x--------x-|
|-7--------10--------6-----6-----6-----9--------9-|
|-------------------------------------------------|

Verse
|----0---------------------------------------------|
|----0-------11-11-11-11-11-11-10-10-10-10-10-10-6-|
|----0--------x--x--x--x--x--x--x--x--x--x--x--x-x-|
|-------------8--8--8--8--8--8--7--7--7--7--7--7-3-|
|-2-----2--2---------------------------------------|
|-0-----0--0---------------------------------------|


Last time [Beat it down and it's lying on the floor]
|----0------------------------------|
|----0------------------------------|
|----0------------------------------|
|-----------------------------------|
|-2-----2--2----8--------4--------3-|
|-0-----0--0----6--------5--------1-|


Chorus
|--------------------------------|
|--------------------------------|
|--------------------------------|
|--------------------------------|
|-2----3----3--3--5----3----2--3-|
|-0----1----1--1--3----1----0--1-|



tab taken from http://snap.to/spineshank

Like us on Facebook.....
-> Loading Time :0.0244 sec