Stench of High Heaven Tabs & Lyrics by Immolation

Stench of High Heaven

guitar tabs lyrics

Immolation

Album : Failures for Gods death metal PlayStop



IMMOLATION - "STENCH OF HIGH HEAVEN"

>From the album Failures for Gods

This is my first tablature transcription.
Due to the muddy production and sludgy guitars on this album
it was very hard to figure out some of the riffs to this song.
Some parts may be off but it is pretty close I think. Also note I
only wrote out the riffs and not the song structure. Listen to the
song to put it together.



tune to C

riff A

|--------------------------------------------|
|--------------------------------------------|
|-8-----------------------8------------------|
|-7-----------------------7------------------|
|-6-----------------------6------------------|
|---22223333222211112222----222233332-1-2----|


riff B

|---------------------------------------------|
|---------------------------------------------|
|---------------------------------------------|
|---------------------------------------------|
|------------------------------------55555-3--|
|-00002222555553333222255555-00002222------2--|


riff C

|-----------------------------------------|
|-----------------------------------------|
|-7777777-------------7777777-------------|
|-6666666-------------6666666-------------|
|-5555555-------------5555555-------------|
|--------3-44-4-4/777--------3-44-4-4/777-|


riff D

|--------------------------------------------|
|--------------------------------------------|
|--------------------------------------------|
|--------------------------------------------|
|-55555--------11111/5h6p5-55555--------11111|
|------00001111-----------------00001111-----|


riff E

|-------------------------------------------|
|-------------------------------------------|
|-------------------------------------------|
|-6666\444/666--------77777\55--------------|
|-5555\333/555-2------66666\44--------------|
|--------------0-5h6h7----------5~-5~-4~~---|


riff F

|-----------------------|
|-----------------------|
|-----------------------|
|-2--3-2----------------|
|-2--3-2-----2----------|
|-0--1-0-4~--0--1--0--1-|


|-------------------------------------------|
|-------------------------------------------|
|-------------------------------------------|
|-------------------------------------------|
|-------------2-222-------------------2-222-|
|-6(let ring)-0-000-------8(let ring)-0-000-|
. ... . ...

riff G

|------------------------|
|------------------------|
|------------------------|
|------------------4--4--|
|-2-222-3/5\33-4---------|
|-0-000-1/3\11-2-2--2----|
. ... ..

riff H

|-------------------------------------------------------|
|-------------------------------------------------------|
|-------------------------------------------------------|
|-----5------6------3--5---------5------6------3--5-----|
|-----5------6------3--3---------5------6------3--3-----|
|-33333--44444--11111--3-----33333--44444--11111--3-----|
.... .... .... .... .... ....

riff I

|--------------------------------------------------------|
|--------------------------------------------------------|
|--------------------------------------------------------|
|--------------------------------------------------------|
|-2-3-5---2-3-5----4----------2-3-5---2-3-5----4---------|
|-0-1-3-0-0-1-3----2--2h3p1~~-0-1-3-0-0-1-3----2-2h3p1~~-|

tabbed by Lord Skeletor

HAVE FUN! FEEL FREE TO OFFER ANY COMMENTS OR CORRECTIONS AT tomseckman@yahoo.com


Like us on Facebook.....
-> Loading Time :0.0085 sec