Spookshow Baby Tabs & Lyrics by Rob Zombie

Spookshow Baby

guitar tabs lyrics

Rob Zombie

Album : Hellbilly Deluxe: 13 Tales of Cadaverous Cavorting Inside the Spookshow InternationalPlayStop



Spookshow Baby
By: Rob Zombie
From: HellBilly Deluxe
Tabbed By: Mike Gagnon

Tuning (CGCFAD)

intro

D-------------------------------------------------------

A-------------------11-13-------------------------------
F-11-11-11-11-11-12-------12-11-11-11-11-11-12-11-11-12-
C-------------------------------------------------------
G-------------------------------------------------------
C-------------------------------------------------------

next part

D---------------------------------
A---------------------------------
F----------------6----------------
C-4-5-5/4/2-4-5----4-5-5/4/2-4-5~-
G---------------------------------
C---------------------------------

When Mr.Zombie Says "HUNGER"

D-------
A-------
F-------
C-4-4---
G-4-4---
C-4-4---

Chorus

D-------------
A-------------
F-------------
C-4--4--4-5/4-
G-4--4--4-5/4-
C-4--4--4-5/4-

During Horns

D------------------
A------------------
F------------------
C-4-4-4--4-4-4-4-4-
G-4-4-4--4-4-4-4-4-
C-4-4-4--4-4-4-4-4-

Bye!!!!


Like us on Facebook.....
-> Loading Time :0.0309 sec