Slither Tabs & Lyrics by Metallica

Slither

guitar tabs lyrics

Metallica

Album : Reload albums i own PlayStop



SLITHER
As recorded by Metallica
(From the 1997 Album RE-LOAD)


Words and Music by James hetfield, Lars Ulrich & Kirk HammettTranscribed by www.mikesguitarsite.co.uk

A5
x 0 2 2 x x G5
3 5 5 x x x C5

x 3 5 5 x x E5
0 2 x x x x
B5
x 2 4 4 x x Bb5
x 1 3 3 x x F5
1 3 x x x x G5(type 2)
3 5 x x x x

Gtr I (Eb Ab Db Gb Bb Eb) - 'James Hetfield - Rhythm w/dist'
Gtr II (Eb Ab Db Gb Bb Eb) - 'Kirk Hammett - Rhythm w/dist'
Gtr III (Eb Ab Db Gb Bb Eb) - 'Kirk Hammett - Lead w/dist'

Intro
Freely approx. Q=100
A5 G5
4/4 5/4
Gtr II
Q E E +W +W +E E
| | | | |
/ / / / /

Gtr I
TP TP ~
E E E E +H +E E Q +H +Q. E E E
|---------|-----------------|---------------------|
|---------|-----------------|---------------------|
|---4-3-2-|-(2)----(2)-2-2--|-(2)----(2)----------|
|---4-3-2-|-(2)----(2)-2-2--|-(2)----(2)----------|
|---2-1-0-|-(0)----(0)-0-0--|-(0)----(0)---0----5-|
|---------|-----------------|-----------------4-3-|


C5
4/4 2/4
+W +H.. E +H
| | | |
/ / / /

~~~ TP
+E E Q +Q E E H +E E E E +Q Q
|-------------------|-------------------|------------|
|-------------------|-------------------|------------|
|---------------4---|--4------(4)-7-6-5-|-(5)--------|
|-------5--(5)--5---|--5------(5)-7-6-5-|-(5)--------|
|-(5)---5--(5)--5---|--5------(5)-5-4-3-|-(3)--0tr3--|
|-(3)---3--(3)--3-3-|--3------(3)-------|------------|


In Time Faster Q=112
A5
4/4
+W +H.. E +H H
| | | | |
/ / / / /

~~~
+Q. a E H +H +E E E E +H H
|------------------|-------------------|-------------|
|------------------|-------------------|-------------|
|-------------5----|-(5)-----(5)-4-3-2-|-(2)----2----|
|-------------5----|-(5)-----(5)-4-3-2-|-(2)----2----|
|-(0)---0h3b4-3----|-(3)-----(3)-2-1-0-|-(0)----0----|
|------------------|-------------------|-------------|


A5 E5
2/4 4/4
Q. E +Q Q H H Q E E +W
| | | | |
/ / / / /

PM PM PM
Q. E +Q a E E E E E E +Q a E E E E E E +Q a E E E E E E
|--------|--------------------|--------------------|--------------------|
|--------|--------------------|--------------------|--------------------|
|-2------|--------------------|--------------------|--------------------|
|-2------|----------5-7-------|----------5-7-------|----------5-7-------|
|-0------|------5h7-7-7-----7-|-(7)--5h7-7-7-----7-|-(7)--5h7-7-7-----7-|
|------0-|-(0)------------0-0-|-(0)------------0-0-|-(0)------------0-0-|


B5BbA5E
+H E E E E W W
| | | | |
/ / / / o

Gtrs I, II
PM PM PM
+Q a E E E E E E +Q a E E E E E E +Q a E E E E E E
|--------------------||---------------------|--------------------|
|--------------------||o--------------------|--------------------|
|------------4-3-2---||---------------------|--------------------|
|----------5-4-3-2---||-----------5-7-------|----------5-7-------|
|-(7)--5h7---2-1-0---||o------5h7-7-7-----7-|-(7)--5h7-7-7-----7-|
|-(0)--------------0-||--(0)------------0-0-|-(0)------------0-0-|
|-Rhy Fig 1

1. 2.
PM PM PM
+Q a E E E E E E +Q a E E E E E E Q a E E E E E E
|--------------------|---------------------||---------------------||
|--------------------|--------------------o||---------------------||
|--------------------|------------4-3-2----||-------------4-3-2---||
|----------5-7-------|----------5-4-3-2----||-----------5-4-3-2---||
|-(7)--5h7-7-7-----7-|-(7)--5h7---2-1-0---o||--(7)--5h7---2-1-0-2-||
|-(0)------------0-0-|-(0)--------------0--||--(0)--------------0-||
end Rhy Fig 1-||-Rhy Fill 1 --|

Verse 1 + 2
Gtrs I, II
PM| PM--| PM|
+Q E E E E E E Q E E E E E E Q E E E E E E
||---------------------|-----------------------|---------------------|
||o--------------------|-----------------------|---------------------|
||---------------------|-----------------------|---------------------|
||-------------3-------|---------------3-------|----------3----------|
||o-(2)------0-1-----1-|--2----------0-1-----1-|-2------0-1-----1----|
||--(0)--3-0-----3b4---|--0----3---0-----3b4---|-0--3-0-----3b4------|
|
| Gtr III on repeat only
| W Q +Q H H Q E S S
||---------------------|-----------------------|---------------------|
||o--------------------|-----------------------|---------------------|
||---------------------|-12--(12)\-------------|----------------x-x--|
||---------------------|-12--(12)\-------------|----------------x-x--|
||o--------------------|-----------------------|---------------------|
||---------------------|-----------------------|---------------------|
|-Fill 1

|-w/Fill 1 on repeat
PM--| PM| PM--|
Q E E E E E E Q E E E E E E Q E E E E E E
|---------------------|------------------|-----------------------|
|---------------------|------------------|-----------------------|
|---------------------|------------------|-----------------------|
|-------------3-------|----------3-------|---------------3-------|
|--2----------1-5---3-|-2------0-1-----1-|--2----------0-1-----1-|
|--0----3---0---3---1-|-0--3-0-----3b4---|--0----3---0-----3b4---|
| |-Rhy Fig 2
|
| Q +Q H
|---------------------|
|---------------------|
|-12--(12)\-----------|
|-12--(12)\-----------|
|---------------------|
|---------------------|
end Fill 1-|

|-Rhy Fig 3
Gtr I
E5F5 E5F5
W W E E S E S E E E E
| | | | | | | | |
/ / x x x / / x x

Gtr II
PM| PM--|
Q E E E E E E Q E E E E E E E E Q E E Q
|--------------------|---------------------|--------------------|
|--------------------|---------------------|--------------------|
|--------------------|---------------------|--------------------|
|----------3---------|-------------3-------|--------------------|
|-2------0-1-----1---|--2----------1-5---3-|-2-3-------2-3------|
|-0--3-0-----3b4-----|--0----3---0---3---1-|-0-1-------0-1------|
end Rhy Fig 2-|

end Rhy Fig 3-|
E5F5 E5F5E G5(type 2)
E E S E S E E E E
| | | | | | | | |
/ / x x x / / o / |-w/Rhy Fig 3

E E Q E E Q S S S S S S S S S S S S S S S S
|-------------------|-----------------------------------------|
|-------------------|-----------------------------------------|
|-------------------|-9-9-9-9-9-9-9-9-10-10-10-10-10-10-10-10-|
|-------------------|-----------------------------------------|
|-2-3-------2-3-----|-7-7-7-7-7-7-7-7--8--8--8--8--8--8--8--8-|
|-0-1-------0-1-----|-----------------------------------------|
|-Riff A


S S S S S S S S S S S S Q
|-------------------------------------------|
|-------------------------------------------|
|-12-12-12-12-12-12-12-12-14-14-14-14-14\---|
|-------------------------------------------|
|-10-10-10-10-10-10-10-10-12-12-12-12-12\---|
|-------------------------------------------|
end Riff A-|

Chorus
2/4 4/4
Gtrs I, II
PM PM
E E E E +E E E E E E E E E E E E E E E E
|-------------||-------------------|-----------------|
|-------------||-------------------|-----------------|
|---4-3-2-----||-(2)---------------|-----------------|
|---4-3-2-----||-(2)-2-2-2-1-2-2---|-1-2-2---2-------|
|---2-1-0-----||-(0)-0-0-0-0-0-0-0-|-0-0-0-0-0-0-6-5-|
|-0-----------||-------------------|-------------4-3-|
|-Rhy Fig 3A--||-Rhy Fig 4

PM PM PM
+E E E E E E E E E E E E E E E E +E E E E E E E E
|-------------------|-----------------|-------------------|
|-------------------|-----------------|-------------------|
|-------------------|-----------7-6-5-|-(5)-5-5---5-4-3-2-|
|-------------------|-----------7-6-5-|-(5)-5-5---5-4-3-2-|
|-(5)-5-7---4-5-7---|-4-5-7---5-5-4-3-|-(3)-3-3-0-3-2-1-0-|
|-(3)-3-3-3-3-3-3-3-|-3-3-3-3-3-------|-------------------|


1.
2/4
Gtr IGtrs I, II
PM PM
+E E E E E E E E +E E E E +E E E E +E E E E
|-------------------|---------------------|-------------|
|-------------------|---------------------|-------------|
|-(2)-2-2-2-2-x-x-2-|-(2)-x-x-2-(2)-4-3-2-|-(2)--4-3----|
|-(2)-2-2-2-2-x-x-2-|-(2)-x-x-2-(2)-4-3-2-|-(2)--4-3----|
|-(0)-0-0-0-0-x-x-0-|-(0)-x-x-0-(0)-2-1-0-|-(0)--2-1----|
|-------------------|---------------------|-----------0-|
end Rhy Fig 4-|-Rhy Fig 4A-|

4/4
Rhy Fig 1

w/Rhy Fig 1 (1st 3 bars only)
Gtr III
E E +E E a E E E E
|------------------------------------|
|-----14b15r==(14)-12-12h14-12-------|
|-----14b15r==(14)-12-12h14-12-------|
|------------------------------14-12-|
|------------------------------------|
|------------------------------------|


E E E E +Q +E E E E E E a E E E E
|---------------------------------|----------------------------------|
|-------------12-(12)---(12)b13---|-----14b15---14-12-12h14-12-------|
|-------------12-(12)---(12)b13---|-----14b15---14-12-12h14-12-------|
|-14--14---14---------------------|----------------------------14-12-|
|---------------------------------|----------------------------------|
|---------------------------------|----------------------------------|


2.
2/4
Gtr II
~~~~~~~ PM
E E +E E +Q +Q E E E E +E E E E +E E E E
|--------------------------------------||----------------------|-----------||
|-12----------------------------------o||----------------------|-----------||
|-12-12b13====(12)r--------------------||--(2)-x-x-2-(2)-4-3-2-|-(2)-------||
|-------------------14-(14)---(14)\----||--(2)-x-x-2-(2)-4-3-2-|-(2)-------||
|-------------------------------------o||--(0)-x-x-0-(0)-2-1-0-|-(0)-------||
|--------------------------------------||----------------------|---------0-||
|
| Gtr I
| PM PM PM
| Q a E E E E E E E E E E +E E E E +E E E E
|--------------------------------------||----------------------|-----------||
|-------------------------------------o||----------------------|-----------||
|------------------------4--3---2------||--(2)-x-x-2-(2)-4-3-2-|-(2)-4-3---||
|--------------------5---4--3---2------||--(2)-x-x-2-(2)-4-3-2-|-(2)-4-3---||
|-----------5h==7--------2--1---0---2-o||--(0)-x-x-0-(0)-2-1-0-|-(0)-2-1---||
|--0--------------------------------0--||----------------------|---------0-||


Interlude
4/4
Gtrs I, II
+Q E E E +S S E E +Q E E E +S S E E
|-------------------------|-------------------------|
|-------------------------|-------------------------|
|-------------------------|-------------------------|
|---------5-7b9r(7)p5-----|---------5-7b9r(7)p5-----|
|------/7-------------7---|------/7-------------7---|
|-(0)-------------------0-|-(0)-------------------0-|
|-Riff B


+Q E E E +S S E E
|-------------------------|
|-------------------------|
|-------------------------|
|---------5-7b9r(7)p5-----| w/Riff B
|------/7-------------7---|
|-(0)-------------------0-|
| end Riff B-|
| Gtr I
| PM
| W Q E E E E E E
|-------------------------|--------------------------|
|-------------------------|--------------------------|
|-------------------------|-----------4----3----2----|
|-------------------------|---------5-4----3----2----|
|-------------------------|------/7---2----1----0----|
|-------------------------|-(0)-------------------0--|



Gtr II
+Q E E E +S S E E +Q E E E +S S E E
|--------------------------------|--------------------------------|
|--------------------------------|--------------------------------|
|----------12-14b16r(14)p12------|----------12-14b16r(14)p12------|
|------/14------------------14---|------/14------------------14---|
|--------------------------------|--------------------------------|
|-(0)--------------------------0-|-(0)--------------------------0-|



Gtr III
W H Q E E
|--------------------------------|---------------------------------||
|--------------------------------|-------------------------------8-||
|--------------------------------|-------------------------------8-||
|--------------------------------|---------------------------------||
|--------------------------------|---------------------------------||
|--------------------------------|---------------------------------||
|
| +Q E E E +S S E E +Q E E E +S S E E
|--------------------------------|---------------------------------||
|--------------------------------|---------------------------------||
|----------12-14b16r(14)p12------|----------12-14b16r(14)p12-------||
|------/14------------------14---|------/14------------------14S=7-||
|--------------------------------|-------------------------------0-||
|-(0)--------------------------0-|-(0)-----------------------------||
|
| PM
| +Q E E E +S S E E +Q E E E E E E
|--------------------------------|---------------------------------||
|--------------------------------|---------------------------------||
|--------------------------------|--------------4------3------2----||
|-----------5--7b9r==(7)p=5------|-----------5--4------3------2-/7-||
|-------/7-------------------7---|-------/7-----2------1------0--0-||
|-(0)--------------------------0-|-(0)-----------------------------||


Guitar Solo
Gtr III
~ ~
E E Q E +E E E E E E E E +E Q
|-----------------------|-----------------------|
|-7-5-----5b6==(5)r---8-|-7-5-----7b8==(7)r-----|
|-7-5-----5b7==(5)r---8-|-7-5---5-7b9==(7)r-----|
|-----7-----------------|-----7-------------7---|
|-----------------------|-----------------------|
|-----------------------|-----------------------|
|
| Gtrs I, II
| E E E E E E E E E E E E E E E E
|-----------------------|-----------------------|
|-----------------------|-----------------------|
|-----------------------|-----------------------|
|-7-7-7-7-7-----7---7-7-|-7-7-7-7-7-----7---7-7-|
|-0-0-0-0-0-----0---0-0-|-0-0-0-0-0-----0---0-0-|
|-----------------------|-----------------------|
|-Rhy Fig 5 end Rhy Fig 5-|

w/Rhy Fig 5 x2.5
PM ~
E S S S S S S S T T S S S S S S S T T S S S S S S E E Q
|---------------------------------|-------------------------------|
|---------------------------------|-----------5-------7b8-5-------|
|-------5-5-----7-7p5-----5-5-----|-7-7p5-------5---5-7b9-5-------|
|---7p5-----7p5-------7p5-----7p5-|-------7p5-----7---------7-----|
|-0-------------------------------|-------------------------------|
|---------------------------------|-------------------------------|


PM PM PM PM
E Q E E +E E E +E E E +E E E +E E
|-----------------------|---------------------------------|
|---5-----7b8==(7)r---5-|-(5)---------------5b5.5==(5)r---|
|---5-----7b9==(7)r---5-|-(5)---7b9==(7)r---5b6====(5)r---|
|-----------------------|-------------------------------7-|
|-0-----0-----------0---|-----0-----------0---------------|
|-----------------------|---------------------------------|


S S S S S S S S S S E E E
|---------------------------|
|-7p5-----------------------|
|-7p5---5-------------------|
|-----7---7-5---5-7p5-------|
|-------------7-------7-6-5-|
|---------------------------|


E E E +E Q E +E Q Q E +E E E
|--------------------------|----12------------------------12-----|
|--------------------------|----15b17---15b17==(15)r\-----15b17==|
|--------------------------|-------------------------------------|
|--------------------------|-------------------------------------|
|-3-5-3b4r(3)----3b4==(3)r-|-------------------------------------|
|-------------5------------|-0------------------------0----------|
|
|
| E E E E Q Q
|--------------------------|
|--------------------------|
|--------------------------| w/Rhy Fig 2
|-7-7-7----7--7------------|
|-0-0-0----0--0------------|
|----------------0---------|


~~~~~
+E E E E Q Q
|-(12)\----12----12-----------------|
|-(15)r\---15b17----15b17---15b17---|
|-----------------------------------|
|-----------------------------------|
|-----------------------------------|
|--------0--------------------------|


S S S S +S S S S S S S S S S S S
|-------12----12-----(12)-----------12-------12----------12---12-------12-|
|-15b17----12-15b17==(15)r-12-15b17----15b17----12-15b17---------15b17----|
|-------------------------------------------------------------------------|
|-------------------------------------------------------------------------|
|-------------------------------------------------------------------------|
|-------------------------------------------------------------------------|


S S S S S S S S S S S S S S S S
|-15b16-12----15b16-12----15b16-12-15b16-12----15b16----12-15-12-|
|----------12----------12-------------------12-------12----------|
|----------------------------------------------------------------|
|----------------------------------------------------------------|
|----------------------------------------------------------------|
|----------------------------------------------------------------|



Gtr I
E5 F5
E E S S E Q S E S
| | | | | | |
/ / x x x x x

S S S S S S S S S S S S S S S S
|----------------------------------------------|
|------------------------------12-12-------x-x-|
|----12-12-12------12----------12-12-------x-x-|
|-14-12-12-12---14----12-14p12-------14p12-----|
|----------------------------------------------|
|----------------------------------------------|
|
| Gtr II
| E E Q H
|----------------------------------------------|
|----------------------------------------------|
|----------------------------------------------|
|----------------------------------------------|
|--2-----3-------------------------------------|
|--0-----1-------------------------------------|
|-Rhy Fig 6

E5 F5
E E Q Q E E
| | | |
/ / x x

S S e S S S S S e S S S E
|-----------------15------------15----|
|-x-x-15-15-15-15----15-15-15---15-15-|
|-x-x-12-12-12-12----12-12-12------12-|
|-------------------------------------|
|-------------------------------------|
|-------------------------------------|
|
| E E Q H
|-------------------------------------|
|-------------------------------------|
|-------------------------------------|
|-------------------------------------|
|-2----3------------------------------|
|-0----1------------------------------|


E5 F5 E5 F5
E E S S E Q S E S E E Q Q E E
| | | | | | | | | | |
/ / x x x x x / / x x

~~~~~~~~
E +E S E. Q E E S S S S S S E E E E E
|--------------------------------------|----------------------------------|
|-14b15==(14)r----------12---14---12---|----------------------------------|
|-14b16==(14)r-12-------12---14---12---|----------------------------------|
|-----------------14-------------------|-14-12----12-14-12----------------|
|--------------------------------------|-------14----------14-13-12-10-12-|
|--------------------------------------|----------------------------------|
|
| E E Q E E Q E E Q H
|--------------------------------------|----------------------------------|
|--------------------------------------|----------------------------------|
|--------------------------------------|----------------------------------|
|--------------------------------------|----------------------------------|
|--2-------3-------------2-3-----------|--2-----3-------------------------|
|--0-------1-------------0-1-----------|--0-----1-------------------------|
end Rhy Fig 6-|

Rhy Fig 3 + Riff A x2 both
Rhy Fig 3A


Chorus
4/4
Rhy Fig 4
Rhy Fig 4A


4/4
PM PM PM
+Q a E E E E E E +Q a E E E E E E +Q a E E E E E E
|--------------------|--------------------|--------------------|
|--------------------|--------------------|--------------------|
|--------------------|--------------------|--------------------|
|----------5-7-------|----------5-7-------|----------5-7-------|
|------5h7-7-7-----7-|-(7)--5h7-7-7-----7-|-(7)--5h7-7-7-----7-|
|-(0)------------0-0-|-(0)------------0-0-|-(0)------------0-0-|
|-Rhy Fig 7

Outro Solo
Gtr III
H Q E E +E Q +E Q E E
|-------------------------||--------------------------------------|
|------------------12-----||-(12)--12---------(12)\--------12-----|
|------------------14b16==||=(14)r-14b16======(14)r\-------14b16==|
|-------------------------||--------------------------------------|
|-------------------------||--------------------------------------|
|-------------------------||--------------------------------------|
|
| Gtrs I, II
| PM
| +Q a E E E E E E
|-------------------------||
|-------------------------||
|-------------------------|| w/Rhy Fig 7 x1.75
|----------5-7------------||
|-(7)--5h7-7-7------------||
|-(0)------------0--0-----||
end Rhy Fig 7-|

~~~
+E +E E E S E. Q
|--------------------------------|
|-(12)-(12)----------------------|
|-(14)r(14)---12----12-----------|
|----------------14----14--------|
|--------------------------------|
|--------------------------------|


E S S E E Q E E
|-----------------------------------------|
|-----------------------------15----------|
|-------------12-14-14b16====(14)r-14b16==|
|-----12h14-------------------------------|
|-----------------------------------------|
|-----------------------------------------|


~~~ PM
+E E E E +E E E E Q S S E a Q E +E
|------15-----------------------|---------------------------------------|
|-----------15------------------|-------------------------12b13==(12)r--|
|-(14)---------14r(14)-12----12-|-12----------------------12b14==(12)r--|
|-------------------------14----|--------14p12----12h14-----------------|
|-------------------------------|--------------14-----------------------|
|-------------------------------|---------------------------------------|


~~
Q E a +E +Q +Q +Q S S S S S S e a Q
|----------------------------------------|---------------------------------------|
|----------14b15==(14)r(14)---(14)b15====|=(14)r---------------------------------|
|----------14b16==(14)r(14)---(14)b16====|=(14)r----14p12----12-14p12------------|
|----------------------------------------|----------------14----------14-12h14---|
|----------------------------------------|---------------------------------------|
|----------------------------------------|---------------------------------------|


~~~~~~~
E e e a E +E E E E
|-----------------------------------------|
|----------------------------------14b15==|
|-12b12.5-----------------------12-14b16==|
|---------14---12-12h14-(14)-14-----------|
|-----------------------------------------|
|-----------------------------------------|
|
| PM
| +Q a E E E E E E
|-----------------------------------------|
|-----------------------------------------|
|-----------------------------------5-----|
|---------------------5---7---------5-----|
|-(7)--------5h=7-----7---7------0--3-----|
|-(0)-------------------------------------|
|-Rhy Fill 4 end Rhy Fill 4-|

Gtrs I, II
|-Rhy Fig 8
C5 B5 Bb5A5
+E E Q E E E E
| | | | | | |
/ / / / / / /

~~~~~~~
+E E E E +E E E E
|---------------------------------------|
|-(14)r---------------------------------|
|-(14)r-14-12b12.5------------12-14b16==|
|------------------14-(14)-14-----------|
|---------------------------------------|
|---------------------------------------|

end Rhy Fig 8-|
B5 BbA5 B5 BbA5 B5 BbE
+E E E E E E E E +E E E E +E E E E
| | | | | | | | | | | | | | | |
/ / / / / / / / / / / / / / / o

+E E E E +E +Q E +E e E E +E e E E
|-------12---------------------------|---------------------------|
|----------12-15b17==(15)-(15)r---12-|-(12)-14---14-(14)-12---12-|
|-(14)r---------------------------12-|-(12)-14---14-(14)-12---12-|
|------------------------------------|---------------------------|
|------------------------------------|---------------------------|
|------------------------------------|---------------------------|

w/Rhy Fig 7 (1st 3 bars)
~~~~ ~~ ~~
+Q E E Q Q E E E E Q Q
|--------------------------|----------------------------|
|-(12)---------------12\---|----------------------12\---|
|-(12)---------------12\---|--------------12------12\---|
|---------14-12-14---------|-----/14---14----14---------|
|--------------------------|----------------------------|
|--------------------------|----------------------------|


|-w/Rhy Fill 4
E E E E S +E. E E E a +E +E E E a +E +E E
|-----------------------------------|---------------------------------------------------|
|-----------12-14-14b15r(14)---12---|-----14b15==(14)r==(14)-12---14b15==(14)r(14)-12---|
|-----------12-14-14b15r(14)---12---|-----14b16==(14)r==(14)-12---14b16==(14)r(14)-12---|
|-----/14---------------------------|---------------------------------------------------|
|-----------------------------------|---------------------------------------------------|
|-----------------------------------|---------------------------------------------------|



w/Rhy Fig 8
~~~
Q Q S S E E E +E E S S e S E. E E
|-----------------------------------|-------12------------------------|
|-14b15---14b15---------------------|----------15p12---------------12-|
|-14b16---14b16--14p12----12-14b16==|=(14)r----------14-12---------12-|
|----------------------14-----------|----------------------14---------|
|-----------------------------------|---------------------------------|
|-----------------------------------|---------------------------------|



~~
+E +E E E +E +E E E
|-----------------------------------------|
|-(12)b13==(12)r---14b15==(14)r(14)-12----|
|-(12)b14==(12)r---14b15==(14)r(14)-12----|
|--------------------------------------14-|
|-----------------------------------------|
|-----------------------------------------|


Gtr III
~~~~ ~~ ~~
+Q Q Q Q Q E E Q E E
|-----------------------------|-----------------------------|
|---------12b12.5--------14---|--------------------------12-|
|---------12b12.5--------14---|-12b12.5------------------12-|
|-(14)--------------14--------|------------14-12-14---14----|
|-----------------------------|-----------------------------|
|-----------------------------|-----------------------------|
|
| Gtr II
| PM PM
| Q a E E E E E E +Q a E E E E E E
|-----------------------------|-----------------------------|
|-----------------------------|-----------------------------|
|-----------------------------|-----------------------------|
|-----------------5--7--------|----------------5--7---------|
|-------5h=7------7--7------7-|-(7)------5h=7--7--7---------|
|--(0)--------------------0-0-|-(0)--------------------0--0-|
|
| Gtr I
| PM PM
| Q a E E E E E E +Q a E E E E E E
|-----------------------------|-----------------------------|
|-----------------------------|-----------------------------|
|-----------------------------|-----------------------------|
|-----------------5--7--------|----------------5--7---------|
|-------5h=7------7--7------7-|-(7)------5h=7--7--7---------|
|--(0)--------------------0-0-|-(0)--------------------0--0-|


+E E E E E E E E +E E E E E E E E
|--------------------------------------|----------------------------------------|
|-(12)-----12----12---12---------------|-------------14-------------------------|
|-(12)-----12----12---12-------12b12.5-|-(12)-----12----12------------12-14b15==|
|------14-----14------------14---------|------14---------------14--------14b15==|
|--------------------------------------|----------------------------------------|
|--------------------------------------|----------------------------------------|
|
| +Q E E E E E E +Q E E E +S S E E
|--------------------------------------|----------------------------------------|
|---------------------12---------------|----------------------------------------|
|-------------12-14b1614---------------|-------------12-14b16r(14)p12-----5-----|
|---------/14---------------14---------|---------/14------------------14--5-----|
|--------------------------------------|----------------------------------3-----|
|--(0)--------------------------0------|--(0)-----------------------------------|
|
| +Q E E E +S S E E +Q E E E +S S E E
|--------------------------------------|----------------------------------------|
|--------------------------------------|----------------------------------------|
|--------------------------------------|----------------------------------5-----|
|--------------5--7b9r(7)p5------------|--------------5--7b9r==(7)p=5-----5-----|
|----------/7----------------7---------|----------/7-------------------7--3-----|
|--(0)--------------------------0------|--(0)-----------------------------------|


+E E E E +E E E E +E E E E E +E E E
|----------------------------------|-----------------------------------------|
|-------14-12---------------12b13==|=(12)r-----------12b13=(12)r------12b13==|
|-(14)r-14-12-14-(14)-14-12-12b13==|=(12)r-----------12b14=(12)r------12b14==|
|-(14)r-------14-(14)-14-12--------|-------14--12-14-------------------------|
|----------------------------------|-----------------------------------------|
|----------------------------------|-----------------------------------------|
|
| Gtrs I, II
| PM PM
| +E E E E +E E E E +Q E E E +S S E E
|----------------------------------|-----------------------------------------|
|----------------------------------|-----------------------------------------|
|--(5)---4--3--2--(2)--4--3--------|--------------12-14b16r(14)p12-----------|
|--(5)---4--3--2--(2)--4--3--------|----------/14--5--7b9r==(7)p=5-14--------|
|--(3)---2--1--0--(0)--2--1--------|-----------/7-------------------7--------|
|----------------------------0-----|--(0)------------------------------0-----|
Q E E E +S S E E


~~~~~~~ ~~
+E E E E E +E E E +E E E E +E E E E
|----------------------------------------|--------------------------------|
|-(12)r----------12b13=(12)r------14b15==|=(14)r-14-12---------14-12------|
|-(12)r----------12b14=(12)r------14b15==|=(14)r-14-12---------14-12------|
|-------14-12-14-------------------------|-------------14-(14)-------14---|
|----------------------------------------|--------------------------------|
|----------------------------------------|--------------------------------|
|
| PM| PM|
| +Q E E E +S S E E +E E E E +E E E E
|----------12----------------------------|--------------------------------|
|-----------5-15-------------------------|--------------------------------|
|--------------7-14b16r(14)p12-----5-----|--(5)---4--3--2--(2)--4--3--2---|
|-----------------7b9r==(7)p=5-14--5-----|--(5)---4--3--2--(2)--4--3--2---|
|-------------------------------7--3-----|--(3)---2--1--0--(0)--2--1--0---|
|--(0)-----------------------------------|--------------------------------|
+Q E E E +S S E E


Freely
H.=H
2/4 4/4
~~~~ ~~~~~~~~~
+E E E E +W
|---------------|-------------------:
|------14-12----|-------------------:
|------14-12----|-------------------:
|-(14)-------14-|-(14)--------------:
|---------------|-------------------:
|---------------|-------------------:
|
| Gtr II
| TP
| +E E E E +H +H
|---------------|-------------------:
|---------------|-------------------:
|--(2)----------|-------------------:
|--(2)----------|-------------------:
|--(0)--------2-|--(2)-------(2)----:
|-------------0-|--(0)-------(0)----:
|
| Gtr I
| PM TP
| +E E E E +Q +H.
|---------------|-------------------:
|---------------|-------------------:
|--(2)--4--3----|-------------------:
|--(2)--4--3----|-------------------:
|--(0)--2--1--2-|--(2)--(2)---------:
|-------------0-|--(0)--(0)---------:


PM PM ~~~~
+E E E E E E E E
|----------------------------------------------------------:
|---------12----14---------------------12b12.5-------------:
|---------12----14---------------------12b12.5-------------:
|-(14)-14----14-------------14------------------------14---:
|----------------------------------------------------------:
|----------------------------------------------------------:
|
| TP
| +W
|----------------------------------------------------------:
|----------------------------------------------------------:
|----------------------------------------------------------:
|----------------------------------------------------------:
|--(2)-----------------------------------------------------:
|--(0)-----------------------------------------------------:
|
| +E E Q E a +E a +E a +E
|----------------------------------------------------------:
|------/5--------------------------------------------------:
|----------7-----------------------------------------------:
|----------------7b9r(7)b9==(7)r(7)b9==(7)r====(7)b9==(7)r-:
|--(2)-----------------------------------------------------:
|--(0)-----------------------------------------------------:


~~~~~ PM PM ~~~
+W +E E E E E E E E
|----------------------:-----------------------------------:
|----------------------:-------------12----14--------------:
|----------------------:-------------12----14----12b13-----:
|-(14)-----------------:-(14)-14--------14----14--------14-:
|----------------------:-----------------------------------:
|----------------------:-----------------------------------:
|
| +W +W
|----------------------:-----------------------------------:
|----------------------:-----------------------------------:
|----------------------:-----------------------------------:
|----------------------:-----------------------------------:
|--(2)-----------------:--(2)------------------------------:
|--(0)-----------------:--(0)------------------------------:
|
| S E S H a E E +Q a a H +Q
|----------------------:-----------------------------------:
|----------------------:-----------------------------------:
|----------------------:-----------------------------------:
|---7b9-7-5------------:-----------------------------------:
|-----------7----5h7-5-:--(5)----5h7p=5----------(5)b7=====:
|----------------------:-----------------------------------:


~~~~~~~~~~~~~~~~~~~~
+W +H H
|-------------:-------------------*|
|-------------:-------------------*|
|-------------:-------------------*|
|-(14)--------:-(14)--------------*|
|-------------:-------------------*|
|-------------:-------------------*|
|
| +W +H H
|-------------:-------------------*|
|-------------:-------------------*|
|-------------:-------------------*|
|-------------:-------------------*|
|--(2)--------:--(2)--------------*|
|--(0)--------:--(0)--------------*|
|
| +W +Q +Q H
|-------------:-------------------*|
|-------------:-------------------*|
|-------------:-------------------*|
|-------------:-------------------*|
|--(5)--------:--(5)--(5)r\-------*|
|-------------:-------------------*|

Like us on Facebook.....
-> Loading Time :0.0197 sec