Scum of the Earth Tabs & Lyrics by Rob Zombie

Scum of the Earth

guitar tabs lyrics

Rob Zombie

Album : The Sinister Urge industrial metal PlayStop



SONG:SCUM OF THE EARTH
ALBUM:SINISTER URGE
TUNING:DROP C (CGCFAD)

* = PALM MUTE


THIS SONGS WICKED ITS 100% PLZ RATE THIS.


INTRO
D-------------------------------------------|
A-------------------------------------------|
F-------------------------------------------|
C--13-14-13-14-13--13-14-13-14-13--13-13----|
G-------------------------------------------|
C-------------------------------------------|


VERSE
D---------------------------------------|
A---------------------------------------|
F---------------------------------------|
C---------------------------------------|
G--1-1----1-1----1-1----1-1-1-2-22-1----|
C--1-1----1-1----1-1----1-1-1-2-22-1----|
* * * * * * * * * * **


CHORUS

HEY!ARE WE BREATHING!,HEY!ARE WE BLEEDING!,HEY!ARE WE SCREAMING!
D----------------------------------------------------------|
A----------------------------------------------------------|
F----------------------------------------------------------|
C----------------------------------------------------------|
G--4-1--1-1--2-1------4-1--1-1--2-1--------4-1--1-1--2-1---|
C--4-1--1-1--2-1------4-1--1-1--2-1--------4-1--1-1--2-1---|
* * * * * *


SCUM OF THE EARTH COME ON!
D------------------------|
A------------------------|
F------------------------|
C------------------------|
G---22-----22----2-------|
C---22-----22----2-------|


INTERLUDE
D-------------------------------------------|
A-------------------------------------------|
F-------------------------------------------|
C-------------------------------------------|
G--------------------------999999999999-----|
C--6-44-1--6-44-1--6-44-1-------------------|

THATS ALL FOR THIS KICK A** SONG ENJOY.

TABBED BY: TAB_MAN84

Like us on Facebook.....
-> Loading Time :0.0324 sec