Scum Tabs & Lyrics by Napalm Death

Scum

guitar tabs lyrics

Napalm Death

Album : Bootlegged In Japan napalm death PlayStop



-------------------------------------------------------------------------------
SCUM - Napalm Death
-------------------------------------------------------------------------------
Tabbed by: MonstaMan
Email: [email protected]

Tuning: Half-Step Down

Intro / Main riff
eb|-----------------------------------------------------|

Bb|-----------------------------------------------------|
Gb|-----------------------------------------------------|
Db|-----------------------------------------------------|
Ab|---------3------------6--5----------3----------------|
Eb|-0-0-0-0-1----0-0-0-0-4--3--0-0-0-0-1----0-0-0-0-1~2-|

Fast riff part 1
eb|---------------------------------------|
Bb|---------------------------------------|
Gb|---------------------------------------|
Db|---------------------------------------|
Ab|-----------------7-------------------7-|
Eb|-0--0-3p0-0-4--0-5---0--0-3p0-0-4--0-5-|

Fast riff part 2
eb|---------------------------------------|
Bb|---------------------------------------|
Gb|---------------------------------------|
Db|---------------------------------------|
Ab|-----------------4-------------------4-|
Eb|-0--0-4p0-0-3--0-2---0--0-4p0-0-3--0-2-|

Chorus part 1
eb|----------------------------|
Bb|----------------------------|
Gb|----------------------------|
Db|----------------------------|
Ab|-7-6-8--7-6-8--7-6-8--7-6-8-|
Eb|-5-4-6--5-4-6--5-4-6--5-4-6-|

Chorus part 2
eb|----------------------------|
Bb|----------------------------|
Gb|----------------------------|
Db|-----5------5------5------5-|
Ab|-5-4-3--5-4-3--5-4-3--5-4-3-|
Eb|-3-2----3-2----3-2----3-2---|

Bridge part 1
eb|-------------------------------------------------------------|
Bb|-------------------------------------------------------------|
Gb|-------------------------------------------------------------|
Db|-------------------------------------------------------------|
Ab|-----4-----5-----7-----8--7-8------4-----5-----7-----9--8-9--|
Eb|-0-0-2-0-0-3-0-0-5-0-0-6--5-6--0-0-2-0-0-3-0-0-5-0-0-7--6-7--|

Bridge part 1
eb|---------------------------------------------------------------|
Bb|---------------------------------------------------------------|
Gb|---------------------------------------------------------------|
Db|---------------------------------------------------------------|
Ab|-----4-----5-----7------------------4-----5-----7--------------|
Eb|-0-0-2-0-0-3-0-0-5-0-0-6~7~6~7--0-0-2-0-0-3-0-0-5-0-0-7~8~7~8--|

SONG STRUCTURE:
Intro / Main riff x2
Fast riff part 1 x2
Fast riff part 2 x2
Fast riff part 1 x2
Fast riff part 2 x2
Intro / Main riff x4
Chorus part 1 x3
Chorus part 2 x1
Chorus part 1 x2
Chorus part 2 x1
Bridge part 1 x4
Bridge part 2 x2
Chorus part 1 x3
Chrous part 2 x1
Chorus part 1 x2
Chorus part 2 x1

| / slide up
| \ slide down
| h hammer-on
| p pull-off
| ~ vibrato
| + harmonic
| x Mute note
===============================================================================

Like us on Facebook.....
-> Loading Time :0.0114 sec