Saddam a Go-Go Tabs & Lyrics by GWAR

Saddam a Go-Go

guitar tabs lyrics

GWAR

Album : This Toilet Earth kickass PlayStop



GWAR - Saddam a Go-Go
Tabbed by David White
Tune to E flat

Verse:
eb|----------| |-----|
Bb|----------| |-----|
Gb|----------| |-----|
Db|--4-5-2-2-| X7 |--8--|
Ab|--4-5-2-2-| |--8--|

Eb|--2-3-0-0-| |--6--|

Bridge into Chorus:
eb|-----------|
Bb|-----------|
Gb|--6-5-3----|
Db|--6-5-3-3--|
Ab|--4-3-1-3--|
Eb|--------1--|

Chorus: He was someone who was there for....
eb|---------------------| |----------| |-----|
Bb|---------------------| |----------| |-----|
Gb|---------------------| |----------| |-----|
Db|--22222--2-2--22222--| |--2-3-6-5-| X3 |--2--|
Ab|--22222--2-2--22222--| |--2-3-6-5-| |--2--|
Eb|--00000--0-0--00000--| |--0-1-4-3-| |--0--|

Chorus Variation:
eb|----------------------|
Bb|----------------------|
Gb|----------------------|
Db|--3-4-7-6--3-4-7-6-4--|
Ab|--3-4-7-6--3-4-7-6-4--|
Eb|--1-2-5-4--1-2-5-4-2--|

And cheer as your scuds fall like rain.....
eb|-------------------------------------------------|
Bb|-------------------------------------------------|
Gb|---------------------------666666699999996666----|
Db|--3-4---7-6---2-3---6-5----666666699999996666----|
Ab|--3-4---7-6---2-3---6-5----444444477777774444-5--|
Eb|--1-2---5-4---0-1---4-3-----------------------3--|

Like us on Facebook.....
-> Loading Time :0.0054 sec