Roll Over and Play Dead Tabs & Lyrics by Lizzy Borden

Roll Over and Play Dead

guitar tabs lyrics

Lizzy Borden

Album : Master of Disguise heavy metal PlayStop



Roll Over & Play Dead
By Lizzy Borden
Tabbed by David Bowles
[email protected]

------------------------------------------------------------------------|
------------------------------------------------------------------------|
------------------------------------------------------------------------|
9--7--9-----9--7--9-----9--7--9-----5--4--------9--7--9-----9--7--9-----|
7--5--7-----7--5--7-----7--5--7-----3--2--------7--5--7-----7--5--7-----|

------------------------------------------------------------------------|


"Cut to the..."
------------------------------------------------------------------------|
------------------------------------------------------------------------|
------------------------------------------------------------------------|
---9--7--9-----5--4--9--------------------------------------------------|
---7--5--7-----3--2--7--------------------------------------------------|
------------------------------------------------------------------------|


"amazing..."
------------------------------------------------------------------------|
------------------------------------------------------------------------|
------------------------------------------------------------------------|
------------------7--11--7--9-------------------------------------------|
------------------5--9---5--7-------------------------------------------|
------------------------------------------------------------------------|


"crazy..."
------------------------------------------------------------------------|
------------------------------------------------------------------------|
------------------------------------------------------------------------|
---------------------------------------------7--11--7--9----------------|
---------------------------------------------5--9---5--7----------------|
----------------------------------------------------------0--0--0--0----|
PM------------|


------------------------------------------------------------------------|
------------------------------------------------------------------------|
------------------------------------------------------------------------|
------9--------------------9-----------------------7--11--7--9----------|
------7--------------------7-----------------------5--9---5--7----------|
0--0-----0--0--0--0--0--0-----0--0--0--0--0--0------------------0--0----|

---- PM--------------- PM-------------- PM------

------------------------------------------------------------------------|
------------------------------------------------------------------------|
------------------------------------7--------5--------------------------|
------------9--------------------7--5--7--5--3--5-----------------------|
------------7--------------------5-----5--3-----3-----------------------|
0--0--0--0-----0--0--0--0--0--0-----------------------------------------|

PM-------- PM---------------

------------------------------------------------------------------------|
------------------------------------------------------------------------|
------------------------------------------------------------------------|
------------------------------------------------------------------------|
------------------------------------------------------------------------|
------------------------------------------------------------------------|


"hide, we can't survive..."
------------------------------------------------------------------------|
------------------------------------------------------------------------|
------------------------------------------------------------------------|
---------9--10--12--10--9-----------------------------------------------|
---------7--8---10--8---7-----------------------------------------------|
---------------------------------------0--0--0--0--0--0--0--0--0--0-----|
PM-------------------------------|

Interlude at 2:34 (1 of 2 guitars)
------------------------------------------------------------------------|
---------------------------12--10---------------------------12--10------|
---------------------9--9----------12--11-----12--11--9--9--------------|
------------------------------------------------------------------------|
------------------------------------------------------------------------|
0--0--0--0--0-----------------------------------------------------------|

PM-----------

------------------------------------------------------------------------|
------------------------------------------------------------------------|
12--11------------------------------------------------------------------|
------------------------------------------------------------------------|
------------------------------------------------------------------------|
------------------------------------------------------------------------|

Like us on Facebook.....
-> Loading Time :0.0096 sec