Rise Tabs & Lyrics by Mike Peters

Rise

guitar tabs lyrics

Mike Peters

Album : Rise rock PlayStop



Cool song.

Intro
G|----------------|
D|2-2-2-2---------|
A|----------------|
E|--------4-4-4-4-|
Play that twice, go into this for rest of song

G|----------------|

D|2-2-2-24--------|
A|----------------|
E|--------4-4-4-4-|

Slide at chorus
G|-------|
D|-------|
A|7/11---|
E|-------|
That is 11, not two ones.

Like us on Facebook.....
-> Loading Time :0.0056 sec