Radiant Eclipse Tabs & Lyrics by Avenged Sevenfold

Radiant Eclipse

guitar tabs lyrics

Avenged Sevenfold

Album : Waking the Fallen metalcore PlayStop



-------------------------------------------------------------------------------
RADIANT ECLIPSE - Avenged Sevenfold
-------------------------------------------------------------------------------

First Tab ever!!!!

Tabbed by : Alex Mallows / alexmallows@hotmail.com
Song: Radiant Eclipse
Artist: Avenged Sevenfold
Album: Waking the Fallen


Lead Guitar Tuning: D A D G B E --or-- E A D G B E

Rhythm Guitar Tuning: C G C F A D

------INTRO------

Lead Guitar:
E--3-------3-----3-2-------2-------3-------3-----3-2-------2----------| X5
B----1---1---1-------1---1---1---1---1---1---1-------1---1---1---1----|
G------0-------0-------0-------0-------0-------0-------0-------0------|
D---------------------------------------------------------------------|
A---------------------------------------------------------------------|
D---------------------------------------------------------------------|

Rhythm Guitar:
|----------------------------------------------------------------------------------|
|----------------------------------------------------------------------------------|
|----------------------------------------------------------------------------------|
|----------------------------------------------------------------------------------|
|-0-0-0---0-0-0---0-0-0-1--0-0-0---0-0-0---0-0-0-1--0-0-0--0---0-0-0---0-0-0-1--0--|
|-0-0-0---0-0-0---0-0-0-1--0-0-0---0-0-0---0-0-0-1--0-0-0--0---0-0-0---0-0-0-1--0--|
PM--------------------- --------------------- ----- --------------------|

-------------------------|
-------------------------|
-------------------------|
-------------------------|
0-0---0-0-0---0-0-0-1----|
0-0---0-0-0---0-0-0-1----|
PM-----------------------|


|----------------------------------| X8
|----------------------------------|
|----------------------------------|
|----------------------------------|
|-000-0-0-0-0-000-000-0-0-11111111-|
|-000-0-0-0-0-000-000-0-0-11111111-|
PM--- - - - - --- --- - - --------

-------PRE-VERSE------

Lead Guitar:
Either:
E---------------------------------------------------------------------|
B---------------------------------------------------------------------|
G---------------------------------------------------------------------|
D-/5---3/5-6/5-3-3/5---3/5-6/5-0-0-1-1---3/5-6/5-3-3/5----3/5-6/5-0---|
A---------------------------------------------------------------------|
D---------------------------------------------------------------------|

Or:
E---------------------------------------------------------------------|
B--8---6/8-9/8-6-6/8---6/8-9/8-3-3-4-4---6/8-9/8-6-6/8----6/8-9/8-3---|
G---------------------------------------------------------------------|
D---------------------------------------------------------------------|
A---------------------------------------------------------------------|
D---------------------------------------------------------------------|

Rhythm Guitar:
|-------------------------------------| X4
|-------------------------------------|
|-------------------------------------|
|-------------------------------------|
|-000---------000-000-----11111111----|
|-000---------000-000-----11111111----|
PM--- --- --- ------------|


|-----------------------|
|-----------------------|
|-----------------------|
|-----------------------|
|-0-----0000-----0000---|
|-0-----0000-----0000---|
PM- ---- -------|

| PM- Palm Mute
| b bend string
| / slide up
| \ slide down
| h hammer-on
| p pull-off
| ~ vibrato
| + harmonic
| x Mute note
============================================================================

Please Comment and rate!!

============================================================================

Like us on Facebook.....
-> Loading Time :0.0121 sec