Psychopath Tabs & Lyrics by Lizzy Borden

Psychopath

guitar tabs lyrics

Lizzy Borden

Album : Love You to Pieces heavy metal PlayStop



Psychopath
By Lizzy Borden
Tabbed by David Bowles
[email protected]

Bass arranged for guitar "I want to play..."
E-----------------------------------------------------------------------|
B-----------------------------------------------------------------------|
G-----------------------------------------------------------------------|
D------9-----9-----9-----9----------------------------------------------|

A---7-----7-----7-----7-------------------------------------------------|
E-----------------------------------------------------------------------|


Palm muting
E-----------------------------------------------------------------------|
B-----------------------------------------------------------------------|
G---------------------------------------9-----------9-----------9-------|
D------------------------------------9-----9-----9-----9-----9-----9----|
A---------------------------------7-----------7-----------7-------------|
E-----------------------------------------------------------------------|

E-----------------------------------------------------------------------|
B-----------------------------------------------------------------------|
G---------9-----------7-----------7-----------7-----------7-------------|
D------9-----9-----7-----7-----7-----7-----7-----7-----7-----7----------|
A---7-----------5-----------5-----------5-----------5-------------------|
E-----------------------------------------------------------------------|


Palm Mute
E-----------------------------------------------------------------------|
B-----------------------------------------------------------------------|
G-----------------------------------------------------------------------|
D---9--10--8--9-----9--10--8--9-----7--8--6--7--------------9--9--7-----|
A-----------------------------------------------------------------------|
E-----------------------------------------------------------------------|

E-----------------------------------------------------------------------|
B-----------------------------------------------------------------------|
G-----------------------------------------------------------------------|
D---7--6--6--5--5--4--4--3--3--2--2--1--1--0--0-------------------------|
A-----------------------------------------------------------------------|
E-----------------------------------------------------------------------|

E-----------------------------------------------------------------------|
B-----------------------------------------------------------------------|
G-----------------------------------------------------------------------|
D---9--7--9-----5--7-----9--7--9-----5--7-----7-----9--7--9-----5--7----|
A---7--5--7-----3--5-----7--5--7-----3--5--9--5-----7--5--7-----3--5----|
E------------------------------------------7----------------------------|


"I see..."
E-----------------------------------------------------------------------|
B-----------------------------------------------------------------------|
G-----------------------------------------------------------------------|
D---9--7--9-----5--7-----------------------------------------9--9--5--7-|
A---7--5--7-----3--5-----------------------------------------7--7--3--5-|
E-----------------------------------------------------------------------|

Like us on Facebook.....
-> Loading Time :0.0062 sec