Prince Charming Tabs & Lyrics by Metallica

Prince Charming

guitar tabs lyrics

Metallica

Album : Reload albums i own PlayStop



BAnd- Metallica
Song- Prince Charming

Gtr I (Eb Ab Db Gb Bb Eb) - 'James Hetfield - Rhythm w/dist'
Gtr II (Eb Ab Db Gb Bb Eb) - 'Kirk Hammett - Rhythm w/dist'
Gtr III (Eb Ab Db Gb Bb Eb) - 'Kirk Hammett - Lead w/dist'

Intro
Freely approx Q=140
4/4

Gtr I
~~
|-3-| |-3-|
Q E E S S Q. +H. E E E E Q. +Q E E E
|---------------------:----------------:-------------------:
|---------------------:----------------:-------------------:
|---------------------:----------------:-------------------:
|------------0-0-2----:-(2)------------:-5-----------------:
|----(5)s17\-0-0-2----:-(2)------0h5h7-:---7----(7)--0h5h7-:
|----(5)s17\-0-0-0----:-(0)------------:-------------------:


E5
Gtr II
W W H Q E E
|
/

~~~~~~~~~~~~~~~~~~
q q Q E E E Q. +H +H Q. E
|------------------|---------------|------------------||
|------------------|---------------|------------------||
|-------5b5.5------|---------------|------------------||
|-5--5--5b5.5------|-5-------------|--------/12\------||
|--------------7-5-|---7----(7)----|-(7)----/12\------||
|------------------|---------------|----------------0-||


A Tempo Q=200
+H H W W
|
/

PM PM
+Q E E E Q E +E E E E E Q E +E E E E E Q E
|---------------------|----------------------|----------------------|
|---------------------|----------------------|----------------------|
|---------------------|----------------------|----------------------|
|------------5b5.5----|-------------5b5.5----|-------------5b5.5----|
|------0h5h7----------|-------0h5h7----------|-------0h5h7----------|
|-(0)---------------0-|-(0)-0--------------0-|-(0)-0--------------0-|


D5
H Q E E +W +H.. E
| | | |
/ / / /

PM PM PM
+E E E E E Q E +E E E E E Q E +E E E E E Q E
|-----------------------||-----------------------|-----------------------|
|-----------------------||o----------------------|-----------------------|
|-----------------------||-----------------------|-----------------------|
|-------------5b5.5-----||--------------5b5.5----|--------------5b5.5----|
|-------0h5h7-----------||o-------0h5h7----------|--------0h5h7----------|
|-(0)-0---------------0-||--(0)-0--------------0-|-(0)--0--------------0-|
|-Riff A

C5
+W +H.. E +W
| | | |
/ / / /

PM PM
+E E E E E Q E +Q E E E E E E +E E E E E Q E
|---------------------|-------------------|----------------------|
|---------------------|-------------------|----------------------|
|---------------------|-------------------|----------------------|
|-------------5--7b9==|=(7)r--7p5-7p5-----|-------------5b5.5----|
|-------0h5h7---------|---------------7---|-------0h5h7----------|
|-(0)-0---------------|-----------------0-|-(0)-0--------------0-|


1.
D5 G5 A5 E
+H.. E +W H Q. E
| | | | | |
/ / / / / o

PM PM
+E E E E E Q E +E E E E Q E E q q E Q E
|-----------------------|------------------|---------------||
|-----------------------|------------------|--------------o||
|-----------------------|------------------|---------------||
|--------------5b5.5----|------------------|-5--5--5h7-----||
|--------0h5h7----------|-------0h5h7--5---|-5--5--5h7----o||
|-(0)--0--------------0-|-(0)-0----------7-|------------0--||
end Riff A-|

2.
Gtr I
q q E Q E +W +H.. E +H. Q E Q E Q Q
|--------------|------------|------------0-|-(0)---------|---------------||
|--------------|------------|------------0-|-(0)---------|---------------||
|--------------|------------|--------------|-------------|---------------||
|-5--5--5h7----|------------|--------------|-------------|----5--5-------||
|-5--5--5h7--2-|-(2)--------|-(2)----------|-------------|-/7------7--5--||
|------------0-|-(0)--------|-(0)----------|-------------|---------------||
|
| Gtr II
| q q E Q E +W +W W E Q E Q Q
|--------------|------------|--------------|-------------|---------------||
|--------------|------------|--------------|-------------|---------------||
|--------------|------------|--------------|-------------|---------------||
|-5--5--5h7----|------------|--------------|--x\---------|----5--5-------||
|-5--5--5h7--2-|-(2)--------|-(2)----------|--x\---------|-/7------7--5--||
|------------0-|-(0)--------|-(0)----------|--x\---------|---------------||


Verse 1
Gtrs I, II
PM| PM| PM| PM|
Q E E E E E E q q Q. E +Q E E E E E E
|----------------|--------------|------------------|
|----------------|--------------|------------------|
|----------------|--------------|------------------|
|--------5-------|-5--5--7------|----------5-------|
|-2------5-7-----|-5--5--7----2-|-(2)------5-7-----|
|-0--0-0---7-0-0-|------------0-|-(0)--0-0---7-0-0-|
|-Rhy Fig 1

PM| PM|
q q E Q E +Q E E E E E E q q Q. E
|--------------|------------------|--------------|
|--------------|------------------|--------------|
|--------------|------------------|--------------|
|-5--5--5h7----|----------5-------|-5--5--7------|
|-5--5--5h7--2-|-(2)------5-7-----|-5--5--7----2-|
|------------0-|-(0)--0-0---7-0-0-|------------0-|


PM| PM|
+Q E E E E E E Q. E +Q E E
|------------------|-----------------|
|------------------|-----------------|
|------------------|-----------------|
|----------5-------|-5----6-(6)--7---|
|-(2)------5-7-----|-5----6-(6)--7-2-|
|-(0)--0-0---7-0-0-|---------------0-|
end Rhy Fig 1-|

Rhy Fig 1 (1st 7 bars only)


PM~~~~~~~~ PM| ~~~
Q. E +Q E E +Q E E E E E E
|-----------------|------------------|
|-----------------|------------------|
|---------------5-|-(5)--------5---5-|
|-5----6-(6)------|------7-5-7-------|
|-5----6-(6)--7---|------------------|
|-----------------|------------------|


~~~~~ PM--| PM--|
+Q E E E E E E +Q E E E E Q E Q E Q Q
|------------------|------------------|---------------||
|------------------|------------------|---------------||
|-(5)--------5---5-|-(5)--------5-----|---------------||
|------7-5-7-------|------7-5-7---7\--|----5--5-------||
|------------------|------------------|-/7------7--5--||
|------------------|------------------|---------------||


Verses 2, 3 + 4
$
||--
||o-
||-- Rhy Fig 1
||--
||o-
||--


w/Rhy Fig 1 (1st 6 bars only)
Gtr II
PM| PM--| PM PM PM| PM--| PM PM
+Q E E E E E E E E E E E E E E +Q E E E E E E E E E E E E E E
|------------------|-----------------|------------------|-----------------|
|------------------|-----------------|------------------|-----------------|
|------------------|-----------------|------------------|-----------------|
|----------5-------|---------5h7-----|----------5-------|---------5h7-----|
|-(2)------7-------|-5h7-------------|----------7-------|-5h7-------------|
|-(0)--0-0---0-0-0-|-----0-0-----0-0-|-(0)--0-0---0-0-0-|-----0-0-----0-0-|



PM| PM--| PM| PM
+Q E E E E E E E E E E E E E E
|------------------|-------------------|
|------------------|-------------------|
|------------------|-------------------|
|----------5-------|-----------5h7-----|
|------------7-----|--5h=7-------------|
|-(0)--0-0-----0-0-|-------0-0-----0-0-|
|
| PM| PM|
| +Q E E E E E E q q Q. E
|------------------|-------------------|
|------------------|-------------------|
|------------------|-------------------|
|----------5-------|--5----5---7-------|
|-(2)------5-7-----|--5----5---7-----2-|
|-(0)--0-0---7-0-0-|-----------------0-|
|-substitute on D.S.


PM| PM--| ~
+Q E E E E E E Q. E +Q E E
|--------------------|-------------------|
|--------------------|-------------------|
|--------------------|-----------------5-|
|-----------7--------|--5-----6-(6)------|
|-----------5--------|--5-----6-(6)--7---|
|-(0)--0-0-----0-0-0-|-------------------|
|
| PM| PM| ~
| +Q E E E E E E Q. E +Q E E
|--------------------|-------------------|
|--------------------|-------------------|
|--------------------|-----------------5-|
|-----------5--------|--5-----6-(6)------|
|-(2)-------5--7-----|--5-----6-(6)--7---|
|-(0)--0-0-----7-0-0-|-------------------|
|
| ~
| +Q E E +Q E E +Q E E +Q E E
|--------------------|-------------------|
|--------------------|-------------------|
|--------------------|-----------------5-|
|--------------------|-------------------|
|--------------------|-------------------|
|-(0)----0-(0)-----0-|-(0)----0-(0)------|


Gtrs I, II
~~~ PM ~~~~~~~~ PM--| ~~~~~~~~ PM--|
+Q E E E E E E +Q E E E E E E +Q E E E E Q E Q E Q E E
|------------------|------------------|------------------|----------------||
|------------------|------------------|------------------|----------------||
|-(5)--------5---5-|-(5)--------5---5-|-(5)--------5-----|----------------||
|------7-5-7-------|------7-5-7-------|------7-5-7---7\--|----5--5--------||
|------------------|------------------|------------------|-/7------7--5-2-||
|------------------|------------------|------------------|--------------0-||


Chorus
Gtrs I, II
E5 D5 C5
+W +H.. E +W +H.. E
| | | | | |
/ / / / / /
|-----------|--------------|-----------|--------------|


D5 G5 A5 E5
+W +H.. E +W H Q. E
| | | | | | |
/ / / / / / /
|-----------|--------------|-----------|-------------|


w/Riff A
D5
+W +H.. E
| | |
/ / /
|----------------------|-----------------------|



C5
+W +H.. E
| | |
/ / /
|-----------------------|---------------------|



D5
+W +H.. E +W
| | | |
/ / / /
|----------------------|-----------------------|------------------|


To Coda
Gtr I
PM|
q q E E E E q q E E E E Q. E +Q E E
|-----------------|----------------|------------------|
|-----------------|----------------|------------------|
|-----------------|----------------|------------------|
|--5---5--5h7-5---|-5--5--5h7------|-5-----6-(6)--7---|
|--5---5--5h7-5-7-|-5--5--5h7------|-5-----6-(6)--7---|
|---------------7-|------------0-0-|----------------0-|
|
| Gtr II
| H. E E q q E Q. Q Q Q E E
|-----------------|----------------|------------------|
|-----------------|----------------|------------------|
|-(7)-------------|----------------|------------------|
|-(7)---------5---|-5--5--5h7------|------------------|
|-(5)---------5-7-|-5--5--5h7------|------------------|
|---------------7-|----------------|-0--------------0-|


1.
Riff A (1st 7 bars only)



Gtr I
PM
q q E E E E +W H Q. E
|---------------|------------|--0------------|
|---------------|------------|--------0------|
|---------------|------------|-------------0-|
|-5--5--5h7-----|------------|---------------|
|-5--5--5h7---2-|-(2)--------|---------------|
|-----------0-0-|-(0)--------|---------------|



\0.5 /
+Q +Q +H E Q E Q Q
|--------------------|----------------||
|--------------------|---------------o||
|-(0)----(0)--(0)----|----------------||
|--------------------|----5--5--------||
|--------------------|-/7------7--5--o||
|--------------------|----------------||


2.
E
Gtrs I, II
W +W +W +W
| | | |
o / / /

Gtr III
~~~~~~~~ ~
W H Q E E +Q E E E E E E +Q E E E E E E
|----------|---------------|------------------|------------------|
|----------|---------------|------------------|------------------|
|----------|---------------|------------------|------------------|
|----------|----------2----|------5---5-------|------5---5-------|
|----------|------------/7-|-(7)----7---7-5-7-|-(7)----7---7-5-7-|
|----------|---------------|------------------|------------------|


Guitar Solo
F#5
+W +H.. E W
| | |
/ / /

~~~ ~~~~~~~~~
+Q E E E E E E +Q. E Q. E +Q E E Q E E
|------------------|---------------------||------------------|
|------------------|---------------------||------------------|
|------------------|---------------------||------------------|
|------5---5-------|---------------------||------4---4-----4-|
|-(7)----7---7-5-7-|-(7)-----------------||------------------|
|------------------|----------xs=x\---/2-||-(2)----2-----2---|
|
| Gtr I Gtrs I, II
| PM| PM|
| +W E Q. Q. E +Q E E E E E E
|------------------|---------------------||------------------|
|------------------|---------------------||------------------|
|------------------|-/4---2--------------||----------2-------|
|------------------|------------/9\----4-||-(4)------2-4-----|
|------------------|------------/9\----4-||-(4)--------4-----|
|-(0)--------------|-------------------2-||-(2)--2-2-----2-2-|
|-Rhy Fig 2

+Q q Q. E E Q E Q E E +Q q H
|----------------|-------------------|----------------|
|----------------|-------------------|----------------|
|------2--4------|-------------------|------4--2------|
|-(4)-----2------|-----4-----4-----4-|-(4)--4--2------|
|--------------2h|==4----------------|----------------|
|----------------|---------2-----2---|----------------|
|
| PM| PM|
| q q E Q E +Q E E E E E E q q E Q E
|----------------|-------------------|----------------|
|----------------|-------------------|----------------|
|--2---2--2h4----|-----------2-------|--2---2--2h4----|
|--2---2--2h4--4-|-(4)-------2-4-----|--2---2--2h4--4-|
|--------------4-|-(4)---------4-----|--------------4-|
|--------------2-|-(2)---2-2-----2-2-|--------------2-|
end Rhy Fig 2-|

w/Rhy Fig 2 x1.5
~~
Q Q E Q E Q E E Q. E E Q E Q E E
|------------------|---------------|-------------------|
|------------------|---------------|-------------------|
|----------2-------|--------2------|-------------------|
|------4-----4-----|-4--2---2------|-----4-----4-----4-|
|--4---------------|------4------2h|==4----------------|
|----------------2-|---------------|---------2-----2---|



+Q Q Q. E +Q Q E Q E Q E E Q. E E Q E Q E E
|---------------------|------------------|-----------------|-------------------|
|---------------------|------------------|-----------------|-------------------|
|-----------2---------|------------------|---------2-------|-------------------|
|-(4)-------2-------4-|-(4)--4-----4-----|-4---2---2-------|-----4-----4-----4-|
|------4--------------|------------------|-------4-------2h|==4----------------|
|---------------------|----------2-----2-|-----------------|---------2-----2---|
|
| Gtr II
| ~~~~~~~~ PM| PM--| PM--| PM--~~
| Q. E +Q E a E +Q E E E E E E E E E E E E E E
|---------------------|------------------|-----------------|
|---------------------|------------------|-----------------|
|--2-----3-(3)--4-----|----------2-------|-2-------2-------| w/Rhy Fig 2A x2
|--2-----3-(3)--4-2h4-|-(4)--4-4---4-4-4-|---4-4-4---4-4-4-|
|---------------------|------------------|-----------------|
|---------------------|------------------|-----------------|
| |-Rhy Fig 2A end Rhy Fig 2A-|
| Gtr I
| Q. E +Q E E
|---------------------|
|---------------------|
|--2-----3-(3)--4-----| w/Rhy Fig 2 x3.5
|--2-----3-(3)--4---4-|
|-------------------4-|
|-------------------2-|
|-Rhy Fill 1 --|


+Q E E H E Q E Q E E +Q E E Q E E
|-------------------|-------------------|-------------------|
|-------------------|-------------------|-------------------|
|-----------2-------|-------------------|-----------2-------|
|-(4)-------2-------|-----4-----4-----4-|-(4)-------2-------|
|-------2h4---------|--4----------------|-------2h4-----4p2-|
|-------------------|---------2-----2---|-------------------|



|-w/Rhy Fill 1
E Q E Q E E +E E E +E Q Q
|-------------------|---------------------------|
|-------------------|---------------------------|

|-------------------|-----2-4b5r(4)--2----------|
|-----4-----4---2-4-|-(4)-----------------------|
|--4----------------|---------------------------|
|---------2---------|---------------------------|
|
| ~~~ PM| PM--| ~
| +Q E E E E E E Q. E +Q E a E
|-------------------|---------------------------|
|-------------------|---------------------------|
|-----------2-------|--2---------3--(3)--4------|
|-(4)---4-4---4-4-4-|--2---------3--(3)--4-2h4--|
|-------------------|---------------------------|
|-------------------|---------------------------|


w/Rhy Fig 2 + 2A x3
~~~~~~~~~ ~~~
Q +Q E +Q E +E E E E Q E E
|-----------------------------------|--------------------------|
|-----------------------------------|--------------------------|
|-16b18===(16)r---14b15==(14)r------|--------------------------|
|-----------------------------------|--------------------------|
|--------------------------------16-|-(16)-16-14h16-16---14-16-|
|-----------------------------------|--------------------------|


~~~~~~~~~ ~~~
Q +Q Q +E E +E E E E Q E E
|-------------------------------------|---------------------------|
|-16b17===(16)r---14b14.5====(14)r----|---------------------------|
|-16b17===(16)r---14b14.5====(14)r----|---------------------------|
|-------------------------------------|---------------------------|
|----------------------------------16-|-(16)-16-14-16-16---14-16--|
|-------------------------------------|---------------------------|


Q +Q Q +E E +Q +Q Q +E S S
|-------------------------------------|-------------------------------------------|
|-16b17===(16)r---14b14.5====(14)r-16-|-(16)b17====(16)r---14b14.5====(14)r-------|
|-16b17===(16)r---14b14.5====(14)r-16-|-(16)b17====(16)r---14b14.5====(14)r-16p14h|
|-------------------------------------|-------------------------------------------|
|-------------------------------------|-------------------------------------------|
|-------------------------------------|-------------------------------------------|


S S E E E Q E E E E E E +Q E E
|-------------------------------|-----------------------------------|
|-----------16---------------16-|-16--16-16-14b14.5==(14)r\---------|
|-16p=14----16----14b15------16-|-16--16-16-14b14.5==(14)r\--2/-----|
|--------16----16---------16----|-----------------------------------|
|-------------------------------|--------------------------------7--|
|-------------------------------|-----------------------------------|
|
| ~~~ PM| PM---| ~~
| +Q E E E E E E Q. E +Q E E
|-------------------------------|-----------------------------------|
|-------------------------------|-----------------------------------|
|------------------2------------|--2---------3--------(3)----4------|
|-(4)--------4--4-------4--4--4-|--2---------3--------(3)----4------|
|-------------------------------|-------------------------------/7--|
|-------------------------------|-----------------------------------|
|
| PM| PM| ~~
| +Q E E E E E E Q. E +Q E E
|-------------------------------|-----------------------------------|
|-------------------------------|-----------------------------------|
|------------------2------------|--2---------3--------(3)----4------|
|-(4)--------------2----4-------|--2---------3--------(3)----4------|
|-(4)-------------------4-------|-------------------------------/7--|
|-(2)--------2--2----------2--2-|-----------------------------------|


Gtrs I, II, III
~~~ ~~~~~~~~ ~~~~~~~~ ~~~~~~~~ ~
+Q E E E E E E +Q E E E E E E +Q E E E E E E +Q E E E E E a E
|------------------|------------------|------------------|--------------------|
|------------------|------------------|------------------|--------------------|
|------------------|------------------|------------------|--------------------|
|------5---5-------|------5---5-------|------5---5-------|------5---5---------|
|-(7)----7---7-5-7-|-(7)----7---7-5-7-|-(7)----7---7-5-7-|-(7)----7---7-5-7s9-|
|------------------|------------------|------------------|--------------------|


~~~ ~~~~~~~~ ~~~~~~~~
+Q E E E E E E +Q E E E E E E +Q E E E E Q E Q E Q Q
|------------------|------------------|------------------|-----------------||
|------------------|------------------|------------------|-----------------||
|------------------|------------------|------------------|-----------------||
|------7---7-------|------7---7-------|------7---7-------|----7--7---------||
|-(9)----9---9-7-9-|-(9)----9---9-7-9-|-(9)----9---9-7\--|-/9------9--7\---||
|------------------|------------------|------------------|-----------------||


Bridge - Half Time Feel
Gtrs I, II Gtr II Gtrs I, II
PM PM| PM|
H Q Q H H E E E E E E E E
||-------------|-----------|-----------------|
||o------------|-----------|-----------------|
||-------2-----|------2----|-----------------|
||--4----2-----|-4----2----|---4-----3-----2-|
||o-4----------|-4---------|-----------------|
||--2----------|-2---------|-2---2-2---2-2---|


1.,2.,3. 4.
Gtr II
PM| PM|
E E q Q. E E E q H +H.. E
|----------------||--------------|--------------------------||
|---------------o||--------------|--------------------------||
|--------5-------||---------5----|-(5)----------------------||
|--------5----4--||---------5----|-(5)----------------------||
|-----4--3----4-o||------4--3----|-(3)--------------------2-||
|-2-2---------2--||--2-2---------|------------------------0-||
|
| Gtr I
| PM| PM|
| E E q Q. E E E q H +Q. E E E E E
|----------------||--------------|--------------------------||
|---------------o||--------------|--------------------------||
|--------5-------||---------5----|-(5)----------------------||
|--------5----4--||---------5----|-(5)----------------------||
|-----4--3----4-o||------4--3----|-(3)----------------------||
|-2-2---------2--||--2-2---------|------------0-||


Gtr II
E5 D5
+W +H.. E
| | |
/ / /
Gtr I
PM PM
+E E E E E Q E +E E E E E Q E
||-----------------------|-----------------------|
||o--
||-- w/Riff A (1st 7 bars)
||--
||o-
||--


C5
+W +H.. E
| | |
/ / /
|---------------------|--------------------|


1.
D5
+W +H.. E +W
| | | |
/ / / /
|----------------------|-----------------------|------------------|



2.
D.S. al Coda
G5 A5 E G5 A5 E5
H Q. E +W H Q. E
| | | | | | |
/ / o / / / /

PM
q q E Q E +E E E E Q E E q q E Q E
|---------------||-------------------|--------------||
|--------------o||-------------------|--------------||
|---------------||-------------------|--------------||
|-5--5--5h7-----||-------------------|-5--5--5h7----||
|-5--5--5h7----o||--------0h5h7--5---|-5--5--5h7--2-||
|------------0--||--(0)-0----------7-|------------0-||


&
Gtr I Gtr III
Q. E +Q E E Q E E E E E E E E E E +Q E E
|------------------|----------------------|-----------------------------|
|------------------|----------------------|-----------------------------|
|------------------|----/12-12-12-12---12-|---12---12b13==(12)r---------|
|-5-----6-(6)--7---|----------------------|-----------------------14-12-|
|-5-----6-(6)--7-2-|----------------------|-----------------------------|
|----------------0-|----------------------|-----------------------------|
|
| Gtr II Gtr I Gtrs I, II
| Q Q Q E E W H E E E E
|------------------|----------------------|-----------------------------|
|------------------|----------------------|-----------------------------|
|------------------|----------------------|-----------------------------|
|------------------|----------------------|-----------------x---x-------|
|----------------2-|----------------------|-----------------x---x-----2-|
|-0--------------0-|----------------------|-----------------x---x-----0-|


Gtrs I, II
+W H.. E
| | |
/ / /

Gtr III
~~~ ~~~~
|--3--|
H. E E E Q +H E E
|-------------------|--------------------|
|----------------14-|--------------------|
|----------------14-|-12----(12)------12-|
|-14-------12h14----|--------------------|
|-------------------|--------------------|
|-------------------|--------------------|


+W +H.. E
| | |
/ / /

+Q E E +Q +E E +H. E E
|-----------------------------|-----------------|
|-----------------------------|--------------12-|
|-(12)----14-(14)--(14)b16-12-|-(12)---------12-|
|-----------------------------|-----------------|
|-----------------------------|-----------------|
|-----------------------------|-----------------|


+H.. E +H.. E
| | | |
/ / / /

~~~~~~~~~~
+H +Q E E +H. E E
|---------------------------|------------------|
|-(12)-----(12)b12.5--------|------------14-12-|
|-(12)-----(12)b12.5--------|------------14-12-|
|---------------------14-14-|-(14)-------------|
|---------------------------|------------------|
|---------------------------|------------------|


+Q. E +Q. E +Q. E +Q. E
| | | | | | | |
/ / / / / / / /

+Q. E +Q. E +Q. E +Q E E
|---------------------|-------------------12-----||
|-(12)---14-(14)---15-|-(15)---14-(14)----15b17==||
|-(12)---14-(14)---15-|-(15)---14-(14)-----------||
|---------------------|--------------------------||
|---------------------|--------------------------||
|---------------------|--------------------------||


Outro Solo
w/Riff A
Gtr II
+W
|
/
~~~~~~~~~~~~~~
+Q Q +E E E E
|-(12)----12-------(12)--12--------12-----|
|-(15)r---15b17====(15)r--------15-15b17==|
|-----------------------------------------|
|-----------------------------------------|
|-----------------------------------------|
|-----------------------------------------|


D5/E
+H.. E +W
| | |
/ / /

+Q H E E +E E E E q E E
|-(12)----12-----------------------|--------------------------------|
|-(15)r---15b17-------------15b17==|=(15)r-15-12--------------------|
|----------------------------------|-------------14-12---12-14pb16==|
|----------------------------------|--------------------------------|
|----------------------------------|--------------------------------|
|----------------------------------|--------------------------------|


C5/E
+H.. E +W
| | |
/ / /

~~~~~~~~~~~~
+Q +Q Q. +E E Q. +Q E E
|------------------------------|------------------------------|
|------------------------------|------------------------------|
|-(14)r==(14)--14pb16r====(14)-|-12---------------------------|
|------------------------------|-----14------(14)-------12h14-|
|------------------------------|------------------------------|
|------------------------------|------------------------------|


D5/E
+H.. E
| |
/ /

E E E E +Q +Q
|--------------------------------------|
|------------14-(14)b15========(14)r---|
|-12------12-14-(14)b16========(14)r---|
|------14------------------------------|
|--------------------------------------|
|--------------------------------------|


+W
|
/

E E E E +E a +S S S S E
|---------------------------------------------|
|---------------------------------------------|
|-12-----12-14b16==(14)-(14)r(14)p12h14p12----|
|-----14-----------------------------------14-|
|---------------------------------------------|
|---------------------------------------------|


|-w/Riff A (1st 7 bars)
E5
+H.. E +W
| | |
/ / /

PM ~~~
E E E E a Q Q E E E E E E E E
|-----------------------------|-------------------------|
|-----------------------------|-------------------------|
|-12--------------------------|-------------------[4]---|
|------14-12----12h14---14\---|-----------4h5---------5-|
|------------14---------------|-----5-7-5---------------|
|-----------------------------|-------------------------|


D5 C5
+H.. E +W +H.. E
| | | | |
/ / / / /

~~~~ ~
E E E E E E Q q q Q E E Q. E +E E E a E
|------------------------|----------------------|----------------------|
|------------------------|-------5--------------|----------------------|
|------------4-----------|--4-------------------|--------------7---7h9-|
|--------4-5---5---------|---------------4-5----|--7------9-(9)--------|
|--7---5-------------7---|-----------7----------|----------------------|
|------------------------|----------------------|----------------------|


D5
+W +H.. E
| | |
/ / /

~~~
|---3---| |----3----|
+H Q E E E E E E E S S S S S S S S S S
|--------------------------------|---------------------------------------------------|
|-----------/12-------15p12------|-12h==15p==12----12h15p12----12h====15p12----12h15p|
|-(9)-------------------------14-|--------------14----------14--------------14-------|
|--------------------------------|---------------------------------------------------|
|--------------------------------|---------------------------------------------------|
|--------------------------------|---------------------------------------------------|


+W
|
/

|---3---|
E S S +S S S S +S S S S E E E
|---------------------------------------------------|
|-12--15p12-(12)12h15p12-(12)-15p12-12-15p12--------|
|----------------------------------------------14---|
|---------------------------------------------------|
|---------------------------------------------------|
|---------------------------------------------------|



E5
H Q. E
| | |
/ / /

~~~~~~~~~~~
S S S S E E +E +E E E
|-----------------------------------------|
|-12h15p12----12-15b17==(15)(15)r\--------|
|----------14----------------------(7)s14-|
|-----------------------------------------|
|-----------------------------------------|
|-----------------------------------------|
|
|
| q q E Q E
|-----------------------------------------|
|-----------------------------------------|
|-----------------------------------------|
|--5-----------5----------5h==7-----------|
|--5-----------5----------5h==7---------2-|
|---------------------------------------0-|

w/Rhy Fig 1 (1st 6 bars)
W W
Q E E +Q E E E +S S S S E E E E E
|-----------------------------------|-----------------------------------|
|----------15---15-----(15)---15----|-----------------------------------|
|-14b16===(14)r-14b15==(14)------14-|-14r(14)p12h14p12----12--14-12-----|
|-----------------------------------|------------------14---------------|
|-----------------------------------|-------------------------------14s=|
|-----------------------------------|-----------------------------------|



~~
Q E E E E E E +Q +E E E E Q
|---------------12------|-----------------14------------|
|------12----15-12---14-|-(14)b15===(14)r-14-14-12------|
|------12-12-14------14-|-(14)b16===(14)r----14-12------|
|-----------------------|--------------------------14---|
|--9/-------------------|-------------------------------|
|-----------------------|-------------------------------|



+Q E E E E E E E E E E E E E E
|-------------------------|------------------------|
|--------12-12-12-12---14-|---14------12--------14-|
|--------12-12-12-12---14-|---14---12--------12-14-|
|-(14)\-------------------|---------------14-------|
|-------------------------|------------------------|
|-------------------------|------------------------|



E +E E E E Q E S S E E E E Q E
|------------------------------12-|---------------------------|
|-14b15r(14)-12----------------12-|-15p=12--------------------|
|-14b15r(14)-12----12--14b16------|--------14-12----12--------|
|---------------14----------------|--------------14----14s==6-|
|---------------------------------|---------------------------|
|---------------------------------|---------------------------|
|
| PM-| PM---| PM--------------|
| +E E E E +E E E E +E E E E E E E E
|---------------------------------|---------------------------|
|---------------------------------|---------------------------|
|---------------------------------|---------------------------|
|---------------------------------|---------------------------|
|-(2)-----2---2--2-(2)--2----2--2-|-(2)-----2--2--2--2--2-2-2-|
|-(0)-----0---0--0-(0)--0----0--0-|-(0)-----0--0--0--0--0-0-0-|

w/Rhy Fig 1 (1st 5 bars)
S S S S E S S S S E S S S S
|---------------------------------------------|
|---------------------------------------------|
|---------------------------------------------|
|---------------14-------------14-------------|
|---------------------------------------------|
|-/12--12-12-12----12-12-12-12----12-12-12-12-|



E E E E +E E E E S S S S E S S S S E S S S S
|--------------------------|--------------------------------------------|
|--------------------------|--------------------------------------------|
|-----------------14-12----|--------------------------------------------|
|-14-14---12-(12)----------|--------------14-------------14-------------|
|-----------------------14-|--------------------------------------------|
|---------10-(10)----------|-12--12-12-12----12-12-12-12----12-12-12-12-|


E E Q E E E E S S S S Q E Q E
|----------------------|------------------------------|
|----------------------|------------------------------|
|----------12-14-------|------------------------------|
|-14-14-------14-12----|--------------14---12-14------|
|-------------------14-|------------------------------|
|----------------------|-12--12-12-12-----------------|



TP TP
W W
|---------------|------------------|
|-17s===========|=12s==============|
|---------------|------------------|
|---------------|------------------|
|---------------|------------------|
|---------------|------------------|
|
| PM PM| PM-
| q q Q. E +Q E E E E E E
|---------------|------------------|
|---------------|------------------|
|---------------|------------------|
|--5--5--7------|------------------|
|--5--5--7----2-|-(2)--2-2-2-2-2-2-|
|-------------0-|-(0)--0-0-0-0-0-0-|


TP ~~
H.. E +W H.. E
|-------------------|------------|---------------|
|-5s==============0-|-(0)--------|--0------------|
|-------------------|------------|---------------|
|-------------------|------------|---------------|
|-------------------|------------|------------/7-|
|-------------------|------------|---------------|
|
|-| PM| PM| ~~
| E E E E E E E E +W +H.. E
|-------------------|------------|---------------|
|-------------------|------------|---------------|
|-------------------|------------|---------------|
|-------------------|------------|---------------|
|-2---2-2-2-2-2-2-2-|-(2)--------|-(2)--------/7-|
|-0---0-0-0-0-0-0-0-|-(0)--------|-(0)-----------|


Gtrs I, II
~~~ ~~~~~~~~ ~~~
+Q E E E E E E +Q E E E E E E
|------------------|------------------|
|------------------|------------------|
|------------------|------------------|
|------5---5-------|------5---5-------|
|-(7)----7---7-5-7-|-(7)----7---7-5-7-|
|------------------|------------------|


Gtrs I, II, III
~~~~~
+Q E E E E Q H Q E E +H +H
|------------------|-----------------|------------------*|
|------------------|-----------------|------------------*|
|------------------|--------------12-|-(12)----(12)\----*|
|------5---5-------|----5--5------12-|-(12)----(12)\----*|
|-(7)----7---7-5\--|-/7------7--5--2-|--(2)-------------*|
|------------------|---------------0-|--(0)-------------*|
E Q E Q E E +H H

Like us on Facebook.....
-> Loading Time :0.0264 sec