Predictable Tabs & Lyrics by Korn

Predictable

guitar tabs lyrics

Korn

Album : Korn nu metal PlayStop



Artist - KoRn
Song - Predictable
Album - KoRn
Tuning - 6 String - D tuning
Tabbed By JM


D|----------------------------------|
A|----------------------------------|
F|----------------------------------| X 4

C|----------------------------------|
G|-------2/1-------------2/1--------|
D|-0--00-----0-2/3-0-2/3-----2/3----|


D|----------------------------------|
A|----------------------------------|
F|----------------------------------| X 11
C|-------4/3-------------4/3--------|
G|-2--22-2/1---4/5---4/5-2/1-4/5----|
D|-0--00-----0-2/3-0-2/3-----2/3----|
pp

D|-------------------------------------|
A|-------------------------------------|
F|---------------------------15~~~-----| X 1
C|-------4/3-------------4/3-14~~~-----|
G|-2--22-2/1---4/5---4/5-2/1-13~~~-----|
D|-0--00-----0-2/3-0-2/3-----12~~~-----|
PP

D|----------------------------------|
A|----------------------------------|
F|----------------------------------| X 8
C|-------4/3-------------4/3--------|
G|-2--22-2/1---4/5---4/5-2/1-4/5----|
D|-0--00-----0-2/3-0-2/3-----2/3----|
pp

D|-----------------------------------------|
A|-----------------------------------------|
F|-----------------------------------------| X 1
C|-----------------------------------------|
G|-22--22x--22--22x--22--22x--22--2-2------|
D|-00x-00x--00x-00x--00x-00x--00x-0--00----|


D|----------------------------------------------|
A|----------------------------------------------|
F|----------------------------------------------| x 4
C|10/9--9/8--8/7--7/6---------------------------|
G|-8/7777/6666/5555/444-6/5--5/4--4/3--3/2------|
D|----------------------4/3333/2222/1111/000----|


D|--------------------------------------------|
A|--------------------------------------------|
F|--------------------------------------------| x 1
C|---------------------------------------3----|
G|-22x-22x-22x-2-22-3--22x-22x-22x-2-222-1----|
D|-00x-00x-00x-0-00-1--00x-00x-00x-0-000------|
pp ppp

D|---------------------------------|
A|---------------------------------|
F|---------------------------------| x 4
C|-2--------5--4---5--3--8--7-3----|
G|-0--2--3--3--2---3--1--6--5-1----|
D|----0--1-------------------------|





D|---------------------|
A|---------------------|
F|---------------------| x 4
C|-2--------8--9-3-----|
G|-0--2--3--6--7-1-----|
D|----0--1-------------|

D|----------------------------------|
A|----------------------------------|
F|----------------------------------| X 4
C|-------4/3-------------4/3--------|
G|-2--22-2/1---4/5---4/5-2/1-4/5----|
D|-0--00-----0-2/3-0-2/3-----2/3----|
pp

D|-----------------------------------------|
A|-----------------------------------------|
F|-----------------------------------------| X 1
C|-----------------------------------------|
G|-22--22x--22--22x--22--22x--22--2-2------|
D|-00x-00x--00x-00x--00x-00x--00x-0--00----|

D|----------------------------------------------|
A|----------------------------------------------|
F|----------------------------------------------| x 4
C|10/9--9/8--8/7--7/6---------------------------|
G|-8/7777/6666/5555/444-6/5--5/4--4/3--3/2------|
D|----------------------4/3333/2222/1111/000----|

D|--------------------------------------------|
A|--------------------------------------------|
F|--------------------------------------------| PLAY THROUGH END
C|---------------------------------------3----|
G|-22x-22x-22x-2-22-3--22x-22x-22x-2-222-1----|
D|-00x-00x-00x-0-00-1--00x-00x-00x-0-000------|
pp ppp



| / slide
| p palm mute
| ~ let ring
| x Mute note
============================================================================



Like us on Facebook.....
-> Loading Time :0.0194 sec