Powerless Chords & Lyrics by LINKIN PARK

Powerless

guitar chords lyrics

LINKIN PARK

Album : PowerlessPlayStop



Thsi is new song from the new album called "LIVING THINGS"

NORE : Caop On 1st.

enjoy the music it's really cool song!


intro + verse (with capo) :

e|------------------------------|

B|------------------------------|
G|------------------------------|
D|----2------5--9--7--5--7--2---| reapet untill the chours.
A|----2------5--9--7--5--7--2---|
E|----0------3--7--5--3--5--0---|

chours:


And You Held it All......Carless ..Fall
G D E C

Secnod time :
G D Bm Bm


e|------------------------------|
B|------------------------------|
G|------------------------------|
D|----2------5--9--7--5--7--2---| reapet untill the chours.
A|----2------5--9--7--5--7--2---|
E|----0------3--7--5--3--5--0---|


chors 2:


chours:


And You Held it All......Carless ..Fall
G D Em C

Secnod time :
G D Bm Bm



Bridge :

e|---------------------------------|
B|---------------------------------|
G|----9-------14--12-------10------|
D|----x---x8--x---x----x4--x--x4---| repaet
A|----7-------12--10-------9-------|
E|---------------------------------|


e|---------------------------------|
B|---------------------------------|
G|----9-------14--12-------10------|
D|----x---x8--x---x----x8--x--x8---| repaet
A|----7-------12--10-------9-------|
E|---------------------------------|





chours:


And You Held it All......Carless ..Fall
G D Em C

Secnod time :
G D Bm Bm


end with bridge till the end.

Like us on Facebook.....
-> Loading Time :0.0490 sec