Pick Me Up Tabs & Lyrics by Soil

Pick Me Up

guitar tabs lyrics

Soil

Album : True Self nu metal PlayStop



SOiL - Pick me up


Tuning : Drop A# ( A# F A# D# G C )


Intro:
C#|----------------------------------------------------|
G#|----------------------------------------------------|
D |----------------------------------------------------|

A#|----------------------------------------------------|
F |----00000000----00000000----00000000----00000000----|
A#|----00000000----00000000----00000000----00000000----|
p.m. ....... ....... ....... .......


Intro:
C#|----------------------------------------------------------|
G#|----------------------------------------------------------|
D |----------------------------------------------------------|
A#|---------101010-------101010-------101010-------101010----|
F |----00000--------00000--------00000--------00000----------|
A#|----00000--------00000--------00000--------00000----------|
p.m. ..... ..... ..... .....


Verse(With Wah-Wah):
C#|-----------------------------------|
G#|-----------------------------------|
D |-----------------------------------|
A#|-----------------------------------|
F |--0----0-1-0----------0----0-1-0---|
A#|--0----0-1-0----------0----0-1-0---| x3


Pre-Chorus:
C#|-------------------------------------------------|
G#|-------------------------------------------------|
D |-------------------------------------------------|
A#|--3-3333-3333-3333-333-5-5555-555-10-10101010----|
F |-------------------------------------------------|
A#|-------------------------------------------------|


Chorus:
C#|----------------------------------------------------------------------------------|
G#|----------------------------------------------------------------------------------|
D |----------------------------------------------------------------------------------|
A#|----------------------------------------------------------------------------------|
F |--0-00-00-0000000--5-55-55-5555555--8-88-88-8888888--10-1010-1010-10101010101010--|
A#|--0-00-00-0000000--5-55-55-5555555--8-88-88-8888888--10-1010-1010-10101010101010--|


Verse(With Wah-Wah):
C#|-----------------------------------|
G#|-----------------------------------|
D |-----------------------------------|
A#|-----------------------------------|
F |--0----0-1-0----------0----0-1-0---|
A#|--0----0-1-0----------0----0-1-0---| x3


Pre-Chorus:
C#|-------------------------------------------------|
G#|-------------------------------------------------|
D |-------------------------------------------------|
A#|--3-3333-3333-3333-333-5-5555-555-10-10101010----|
F |-------------------------------------------------|
A#|-------------------------------------------------|


Chorus:
C#|----------------------------------------------------------------------------------|
G#|----------------------------------------------------------------------------------|
D |----------------------------------------------------------------------------------|
A#|----------------------------------------------------------------------------------|
F |--0-00-00-0000000--5-55-55-5555555--8-88-88-8888888--10-1010-1010-10101010101010--|
A#|--0-00-00-0000000--5-55-55-5555555--8-88-88-8888888--10-1010-1010-10101010101010--| x2


Bridge:
C#|----------------------------------------------------|
G#|----------------------------------------------------|
D |----------------------------------------------------|
A#|----------------------------------------------------|
F |----00000000----00000000----00000000----00000000----|
A#|----00000000----00000000----00000000----00000000----|
p.m. ....... ....... ....... .......


Brigde:
C#|----------------------------------------------------------|
G#|----------------------------------------------------------|
D |----------------------------------------------------------|
A#|---------101010-------101010-------101010-------101010----|
F |----00000--------00000--------00000--------00000----------|
A#|----00000--------00000--------00000--------00000----------|
p.m. ..... ..... ..... .....


Solo:
C#|----------------------------------------------------|
G#|----------------------------------------------------|
D |----------------------------------------------------|
A#|----------------------------------------------------|
F |----00000000----00000000----00000000----00000000----|
A#|----00000000----00000000----00000000----00000000----|
p.m. ....... ....... ....... .......


Pre-Chorus:
C#|-------------------------------------------------|
G#|-------------------------------------------------|
D |-------------------------------------------------|
A#|--3~~~-----------------5~~~-------15~~~----------|
F |-------------------------------------------------|
A#|-------------------------------------------------|


Chorus:
C#|----------------------------------------------------------------------------------|
G#|----------------------------------------------------------------------------------|
D |----------------------------------------------------------------------------------|
A#|----------------------------------------------------------------------------------|
F |--0-00-00-0000000--5-55-55-5555555--8-88-88-8888888--10-1010-1010-10101010101010--|
A#|--0-00-00-0000000--5-55-55-5555555--8-88-88-8888888--10-1010-1010-10101010101010--| x3


Outro:
C#|----------------------------------------------------|
G#|----------------------------------------------------|
D |----------------------------------------------------|
A#|----------------------------------------------------|
F |----00000000----00000000----00000000----00000000----|
A#|----00000000----00000000----00000000----00000000----|
p.m. ....... ....... ....... .......


Outro
C#|------------------------------------------------------|
G#|------------------------------------------------------|
D |------------------------------------------------------|
A#|---------101010-------101010-------101010-------------|
F |----00000--------00000--------00000----------8\-------|
A#|----00000--------00000--------00000----------8\-------|
p.m. ..... ..... .....

Like us on Facebook.....
-> Loading Time :0.0087 sec