Petals Like Bricks Tabs & Lyrics by Unwound

Petals Like Bricks

guitar tabs lyrics

Unwound

Album : The Future of What post-hardcore PlayStop



track : Petals like bricks
band : unwound
album : the future of what?

Transcribed by Vincent

i tried a EADGBe tuning. it sounds like Justin changed his tuning.
anymay, the tabs if for a standart tuning.

intro guitar:

e |------------------------------|
B |------------------------------|
G |------4-------4-------4-------|...
D |------------------------------|...
A |-4-4-----4-4-----4-4-----4-4--|...
E |------------------------------|

intro bass:
G || ---------------------------------- ||
D ||. --------------------------------3- .||
A ||. --4-4-4-4-4-4-4-4-4-4-4-4-4-4-4--- .||
E || ---------------------------------- ||

verse guitar:
e |--------------------------------------------|
B |--0--0--0--0--0--0--0--0-----0--0--0--0--0--|
G |--11-11-11-11-13-13-13-12----12-12-12-12-12-|
D |--------------------------------------------|
A |--9--9--9--9--11-11-11-10----10-10-10-10-10-|
E |--------------------------------------------|


e |-----------------------------------------------|
B |-10-10-10-10-10-10-10-12---12-12-12-12-12-12---|
G |-7--7--7--7--7--7--7---------------------------|
D |-0--0--0--0--0--0--0--9----9--9--9--9--9--9----|
A |-0--0--0--0--0--0--0---------------------------|
E |-----------------------------------------------|
* * * * * *
bend the "9" gradualy a semitone


verse bass:
G |---------------------------------------|
D |-0-------------------------------------|
B |------------------2----------3---------|
E |--2-------3----------------------------|



chorus guitar:
e |--------------------------------|
B |--------------------------------|
G |-------8-------8-------8--------|..
D |--------------------------------|..
A |-8-8------8-8-----8-8-----8-8---|..
E |--------------------------------|


chorus bass:
G |-------------------------------------------|
D |-------------------------------------------|
B |--5-5----7---5-5----7---5-5----7---5-7-8-7-|
E |-------------------------------------------|



guitar bridge:
G Gsus2 C Ab maj7
e |---3--------5-------3-------4-------|
B |---3--------3-------5-------4-------|
G |---4--------4-------5-------5-------|
D |---5--------x-------5-------5-------|
A |---5--------5-------3-------6-------|
E |---3--------3-------3-------4-------|



bass bridge:
G |---------------------------------------------|
D |---------------------------------------------|
B |----------/10--------------------------------|
E |-3-------------------8-----------4-----------|



then intro + verse + chorus.

end.

Like us on Facebook.....
-> Loading Time :0.0096 sec