Panic Song Tabs & Lyrics by Green Day

Panic Song

guitar tabs lyrics

Green Day

Album : The Green Day CollectionPlayStop



Tabbed by:Sam Champness |NOTE: PLAY THIS AS SHOWN ON TABS. |
Email: schampness@msn.com | 11 11 11 11 |
Song: Panic song | 9 9 9 9 |
Tuning: Half step down | 9 9 9 9 |

Intro
e|------||-------------------||---------------------------------------|
B|------||-----4---5---7-7---||---------------------------------------|
G|-4----||----4----4---4-4-X2||-------99--11-11-11-11-----------------|
D|-4----||-------------------||---99--99--9--9--9--9------------------|

A|-2-X2-||-------------------||---99--77--9--9--9--9------------------|
E|------||-------------------||---77------------------X4-(pick slide)-|

e|--------------------||-------------------------------------|
B|--------------------||-------------------------------------|
G|11-11--xxxxxxxx-----||-11-11-11-11-11----------------------|
D|9--9---xxxxxxxx-----||-9--9--9--9--9---9-9-9-9-9-9-9-------|
A|9--9---xxxxxxxx--X8-||-9--9--9--9--9------------------X4---|
E|--------------------||-------------------------------------|
PM_____________
Verse
e|-------------------||----------------------------|
B|-------------------||----------------------------|
G|-------------------||--444444--------------------|
D|-6666666--4444444--||--444444--666666--444444----|
A|-6666666--4444444--||--222222--666666--444444----|
E|-4444444--2222222--||----------444444--222222----|

Chorus
e|--------------------------------------------------|
B|--------------------------------------------------|
G|------4444--------4444--------4444----------------|
D|2222--4444--4444--4444--2222--4444--7777--4444----|
A|2222--2222--4444--2222--2222--2222--7777--4444----|
E|0000--------2222--------0000--------5555--2222----|

Verse
e|-------------------------------|
B|-------------------------------|
G|4444444------------------------|
D|4444444--6666666--4444444------|
A|2222222--6666666--4444444------|
E|---------4444444--2222222--X2--|

Chorus
e|--------------------------------------------------|
B|--------------------------------------------------|
G|------4444--------4444--------4444----------------|
D|2222--4444--4444--4444--2222--4444--7777--4444----|
A|2222--2222--4444--2222--2222--2222--7777--4444----|
E|0000--------2222--------0000--------5555--2222----|

Bridge
e|-------------------------|
B|-------------------------|
G|444444-------------------|
D|444444--7777--4444444----|
A|222222--7777--4444444----|
E|--------5555--2222222----|x4
ORDER
INTRO
VERSE
CHORUS
VERSE
CHORUS
BRIDGE

| / slide up
| \ slide down
| h hammer-on
| p pull-off
| ~ vibrato
| + harmonic
=============================================================================

Like us on Facebook.....
-> Loading Time :0.0531 sec