Outlaw Tabs & Lyrics by Riot

Outlaw

guitar tabs lyrics

Riot

Album : Nightbreaker heavy metal PlayStop



-----------------------------------------------------------------
"Outlaw" by "Riot" from the album "Fire Down Under"
-----------------------------------------------------------------
Tabbed by: Scott Lawson 3/4/2011
Email: [email protected]

Tuning: Standard

Intro (Some notes shown are from echo effect)
e|--------------0-0-------------------------0--------------------|

B|----1-0-1-0-1--3-3-1-0-1-0--------0-1-0-1---3-1-0-1-0-1-0------|
G|--2-----------------------------0------------------------------|
D|---2-----------------------------0-----------------------------|
A|-0-----------------------------2-------------------------------|
E|------------------------------3--------------------------------|



e|----------------0-----------------------------0----------------|
B|---1--0-1--0-1----3-1-0-1-0---0----0--0-1-0-1---3-1-0-1-0------|
G|----2-----------------------2-------0--------------------------|
D|--2------------------------------------------------------------|
A|-0-------------------------------2-----------------------------|
E|--------------------------------3------------------------------|


Verse (7x)
e|---------------------------------------------------------------|
B|---------------------------------------------------------------|
G|-2--5-5--2-2--5-5--7-7-----------------------------------------|
D|-2--5-5--2-2--5-5--7-7-----------------------------------------|
A|-0--3-3--0-0--3-3--5-5-----------------------------------------|
E|---------------------------------------------------------------|


Turnaround (8th time)
e|---------------------------------------------------------------|
B|---------------------------------------------------------------|
G|-2--5-5--9-9-9-9-9-9-9-9---------------------------------------|
D|-2--5-5--9-9-9-9-9-9-9-9---------------------------------------|
A|-0--3-3--7-7-7-7-7-7-7-7---------------------------------------|
E|---------------------------------------------------------------|


Repeat Verse (2x)


Pre-Chorus Turnaround
e|---------------------------------------------------------------|
B|---------------------------------------------------------------|
G|-2--5-5--2-2--5-5--7-7--9-9-9-9-9-9-9-9-9-9-9-9-9-9-9-9--------|
D|-2--5-5--2-2--5-5--7-7--9-9-9-9-9-9-9-9-9-9-9-9-9-9-9-9--------|
A|-0--3-3--0-0--3-3--5-5--7-7-7-7-7-7-7-7-7-7-7-7-7-7-7-7--------|
E|---------------------------------------------------------------|


Chorus
e|---------------------------------------------------------------|
B|---------------------------------------------------------------|
G|-5----------2--5-5--5-5--7-------------------------------------|
D|-5--5-5--3--2--5-5--5-5--7-------------------------------------|
A|-3--5-5--3--0--3-3--3-3--5-------------------------------------|
E|----3-3--1-----------------------------------------------------|


e|---------------------------------------------------------------|
B|---------------------------------------------------------------|
G|-5----------2---5-5-5-5--7-7-7---------------------------------|
D|-5--5-5--3--2---5-5-5-5--7-7-7-7-------------------------------|
A|-3--5-5--3--0---3-3-3-3--5-5-5-7-------------------------------|
E|----3-3--1---------------------5-------------------------------|


Verse (5x)

Turnaround (1X)

Verse (2x)

Pre-Chorus Turnaround (1x)

Chorus (1x)


Chorus Turnaround
e|---------------------------------------------------------------|
B|---------------------------------------------------------------|
G|---------------------------------------------------------------|
D|-7-9-----------------------------------------------------------|
A|-7-9-----------------------------------------------------------|
E|-5-7-----------------------------------------------------------|


Chorus (1x)

Solo Over Verse (3x)
Solo Over Turnaround (1x)
Solo Over Verse (3x)
Solo Over Turnaround (1x)


Chorus (1x)
Chorus Turnaround (1x)
Chorus (1x)

Solo over Verse until end

==================================================================

First Guitar Solo (I didn't tab the outro solos...too much work.)

b b b b~ b~ b~ b b b b~ b b
e|---------------------------------------------------------------|
B|-8-8-8-8-8-8--8-5--------------- 8-8-8-8-8-8---5--5-----------|
G|------------------7-5-7-5---------------------7---7--7-5-7/9---|
D|---------------------------8-8---------------------------------|
A|---------------------------------------------------------------|
E|---------------------------------------------------------------|

b b
e|-12-10-8-7-8-8---12-10-8-12-15------17-19-19-17-17-15-17-17----|
B|---------------------------------17----------------------------|
G|---------------------------------------------------------------|
D|---------------------------------------------------------------|
A|---------------------------------------------------------------|
E|---------------------------------------------------------------|

b b b b b b b b b b b
e|----12-12-12-12-12-12-12-12-12-12-12-12------------------------|
B|-15----15-15-15-15-15-15-15-15-15-15-15\-----------------------|
G|---------------------------------------------------------------|
D|---------------------------------------------------------------|
A|---------------------------------------------------------------|
E|---------------------------------------------------------------|


| / slide up
| \ slide down
| h hammer-on
| p pull-off
| ~ vibrato
| + harmonic
| x Mute note
| b Bend

Like us on Facebook.....
-> Loading Time :0.0080 sec