Only of You Tabs & Lyrics by Green Day

Only of You

guitar tabs lyrics

Green Day

Album : The Green Day CollectionPlayStop



GREEN DAY - ONLY OF YOU

Intro

Q=184


F#5A5 D5 A5 B5
4/4
Gtr I

W Q Q Q E +E E E E E E E E E
|----------||----------------|-----------------|
|----------||-------3--------|-----------------|
|----------||----2--2--2-(2)s|=4-4-4-4-4-4-4---|
|----------||-4--2--0--2-(2)s|=4-4-4-4-4-4-4---|
|----------||-4--0-----0-(0)s|=2-2-2-2-2-2-2-0-|
|----------||-2--------------|-----------------|


F#5A5 D5 A5 B5
Q Q Q E +E E E E E E E E E
|----------------|-----------------|
|-------3--------|-----------------|
|----2--2--2-(2)s|=4-4-4-4-4-4-4---|
|-4--2--0--2-(2)s|=4-4-4-4-4-4-4---|
|-4--0-----0-(0)s|=2-2-2-2-2-2-2-0-|
|-2--------------|-----------------|


F#5A5 D5 A5 B5 F#5A5 D5 A5 B5
Q Q Q E +E E E E E E E E E Q Q Q E +E E E E E E E E E
|----------------|-----------------|----------------|------------------|
|-------3--------|-----------------|-------3--------|------------------|
|----2--2--2-(2)s|=4-4-4-4-4-4-4---|----2--2--2-(2)s|=4-4-4-4-4-4-4----|
|-4--2--0--2-(2)s|=4-4-4-4-4-4-4---|-4--2--0--2-(2)s|=4-4-4-4-4-4-4----|
|-4--0-----0-(0)s|=2-2-2-2-2-2-2-0-|-4--0-----0-(0)s|=2-2-2-2-2-2-2-0--|
|-2--------------|-----------------|-2--------------|------------------|


A B D6sus2 E5
Q Q E E E E +E E Q E E E S S Q Q E E E E +E E Q E E E E
|---------------|----------------0-0-|-0--0--0-0-0---|------------------|
|-2--2--2-2-2-4-|-(4)-4-4--4-4-4-0-0-|-0--0--0-0-0---|------------------|
|-2--2--2-2-2-4-|-(4)-4-4--4-4-4-7-7-|-7--7--7-7-7-9-|-(9)-9-9--9-9-9-9-|
|-2--2--2-2-2-4-|-(4)-4-4--4-4-4-7-7-|-7--7--7-7-7-9-|-(9)-9-9--9-9-9-9-|
|-0--0--0-0-0-2-|-(2)-2-2--2-2-2-5-5-|-5--5--5-5-5-7-|-(7)-7-7--7-7-7-7-|
|---------------|--------------------|---------------|------------------|


A B D6sus2 E5
Q Q E E E E +E E Q E E E S S Q Q E E E E +E E Q E E E E
|---------------|----------------0-0-|-0--0--0-0-0---|------------------|
|-2--2--2-2-2-4-|-(4)-4-4--4-4-4-0-0-|-0--0--0-0-0---|------------------|
|-2--2--2-2-2-4-|-(4)-4-4--4-4-4-7-7-|-7--7--7-7-7-9-|-(9)-9-9--9-9-9-9-|
|-2--2--2-2-2-4-|-(4)-4-4--4-4-4-7-7-|-7--7--7-7-7-9-|-(9)-9-9--9-9-9-9-|
|-0--0--0-0-0-2-|-(2)-2-2--2-2-2-5-5-|-5--5--5-5-5-7-|-(7)-7-7--7-7-7-7-|
|---------------|--------------------|---------------|------------------|


Verses 1 & 2
A B D6sus2 E5
Q Q E E E E +E E Q E E E S S Q Q E E E E +E E Q E E E E
||----------------|----------------0-0-|-0--0--0-0-0---|-------------------|
||o-2--2--2-2-2-4-|-(4)-4-4--4-4-4-0-0-|-0--0--0-0-0---|-------------------|
||--2--2--2-2-2-4-|-(4)-4-4--4-4-4-7-7-|-7--7--7-7-7-9-|-(9)-9-9--9-9-9-9--|
||--2--2--2-2-2-4-|-(4)-4-4--4-4-4-7-7-|-7--7--7-7-7-9-|-(9)-9-9--9-9-9-9--|
||o-0--0--0-0-0-2-|-(2)-2-2--2-2-2-5-5-|-5--5--5-5-5-7-|-(7)-7-7--7-7-7-7--|
||----------------|--------------------|---------------|-------------------|


A B D6sus2 E5
Q Q E E E E +E E Q E E E S S Q Q E E E E +E E Q E E E E
|---------------|----------------0-0-|-0--0--0-0-0---|------------------|
|-2--2--2-2-2-4-|-(4)-4-4--4-4-4-0-0-|-0--0--0-0-0---|------------------|
|-2--2--2-2-2-4-|-(4)-4-4--4-4-4-7-7-|-7--7--7-7-7-9-|-(9)-9-9--9-9-9-9-|
|-2--2--2-2-2-4-|-(4)-4-4--4-4-4-7-7-|-7--7--7-7-7-9-|-(9)-9-9--9-9-9-9-|
|-0--0--0-0-0-2-|-(2)-2-2--2-2-2-5-5-|-5--5--5-5-5-7-|-(7)-7-7--7-7-7-7-|
|---------------|--------------------|---------------|------------------|


A B D6sus2 E5
Q Q E E E E +E E Q E E E S S Q Q E E E E +E E Q E E E E
|---------------|----------------0-0-|-0--0--0-0-0---|------------------|
|-2--2--2-2-2-4-|-(4)-4-4--4-4-4-0-0-|-0--0--0-0-0---|------------------|
|-2--2--2-2-2-4-|-(4)-4-4--4-4-4-7-7-|-7--7--7-7-7-9-|-(9)-9-9--9-9-9-9-|
|-2--2--2-2-2-4-|-(4)-4-4--4-4-4-7-7-|-7--7--7-7-7-9-|-(9)-9-9--9-9-9-9-|
|-0--0--0-0-0-2-|-(2)-2-2--2-2-2-5-5-|-5--5--5-5-5-7-|-(7)-7-7--7-7-7-7-|
|---------------|--------------------|---------------|------------------|


A B D6sus2 E5
Q Q E E E E +E E Q E E E S S Q Q E E E E +E E Q E E E E
|---------------|----------------0-0-|-0--0--0-0-0---|------------------|
|-2--2--2-2-2-4-|-(4)-4-4--4-4-4-0-0-|-0--0--0-0-0---|------------------|
|-2--2--2-2-2-4-|-(4)-4-4--4-4-4-7-7-|-7--7--7-7-7-9-|-(9)-9-9--9-9-9-9-|
|-2--2--2-2-2-4-|-(4)-4-4--4-4-4-7-7-|-7--7--7-7-7-9-|-(9)-9-9--9-9-9-9-|
|-0--0--0-0-0-2-|-(2)-2-2--2-2-2-5-5-|-5--5--5-5-5-7-|-(7)-7-7--7-7-7-7-|
|---------------|--------------------|---------------|------------------|


Chorus
F#5A5 D5 A5 B5 F#5A5 D5 A5 B5
Q Q Q E +E E E E E E E E E Q Q Q E +E E E E E E E E E
|----------------|-----------------|----------------|------------------|
|-------3--------|-----------------|-------3--------|------------------|
|----2--2--2-(2)s|=4-4-4-4-4-4-4---|----2--2--2-(2)s|=4-4-4-4-4-4-4----|
|-4--2--0--2-(2)s|=4-4-4-4-4-4-4---|-4--2--0--2-(2)s|=4-4-4-4-4-4-4----|
|-4--0-----0-(0)s|=2-2-2-2-2-2-2-0-|-4--0-----0-(0)s|=2-2-2-2-2-2-2-0--|
|-2--------------|-----------------|-2--------------|------------------|


1.
F#5A5 D5 A5 B5 F#5A5 D5 A5 B5
Q Q Q E +E E E E E E E E E Q Q Q E +E E H E Q
|----------------|-----------------|----------------|--------------|
|-------3--------|-----------------|-------3--------|--------------|
|----2--2--2-(2)s|=4-4-4-4-4-4-4---|----2--2--2-(2)s|=4------------|
|-4--2--0--2-(2)s|=4-4-4-4-4-4-4---|-4--2--0--2-(2)s|=4------------|
|-4--0-----0-(0)s|=2-2-2-2-2-2-2-0-|-4--0-----0-(0)s|=2------------|
|-2--------------|-----------------|-2--------------|--------------|


A B D6sus2 E5
Q Q E E E E +E E Q E E E S S Q Q E E E E +E E Q E E E E
|---------------|----------------0-0-|-0--0--0-0-0---|------------------|
|-2--2--2-2-2-4-|-(4)-4-4--4-4-4-0-0-|-0--0--0-0-0---|------------------|
|-2--2--2-2-2-4-|-(4)-4-4--4-4-4-7-7-|-7--7--7-7-7-9-|-(9)-9-9--9-9-9-9-|
|-2--2--2-2-2-4-|-(4)-4-4--4-4-4-7-7-|-7--7--7-7-7-9-|-(9)-9-9--9-9-9-9-|
|-0--0--0-0-0-2-|-(2)-2-2--2-2-2-5-5-|-5--5--5-5-5-7-|-(7)-7-7--7-7-7-7-|
|---------------|--------------------|---------------|------------------|


A B D6sus2 E5
Q Q E E E E +E E Q E E E S S Q Q E E E E +E E Q E E E E
|---------------|----------------0-0-|-0--0--0-0-0---|-------------------||
|-2--2--2-2-2-4-|-(4)-4-4--4-4-4-0-0-|-0--0--0-0-0---|------------------o||
|-2--2--2-2-2-4-|-(4)-4-4--4-4-4-7-7-|-7--7--7-7-7-9-|-(9)-9-9--9-9-9-9--||
|-2--2--2-2-2-4-|-(4)-4-4--4-4-4-7-7-|-7--7--7-7-7-9-|-(9)-9-9--9-9-9-9--||
|-0--0--0-0-0-2-|-(2)-2-2--2-2-2-5-5-|-5--5--5-5-5-7-|-(7)-7-7--7-7-7-7-o||
|---------------|--------------------|---------------|-------------------||


Bridge
2.
B5 B A F#5E5opF#5E5open
E H E Q Q E E E E E E E E E E E E E S S Q E E Q E E
|-------------||----------------|-------------------|---------------|
|-------------||-4--4-4-4-4-4---|-2-2-2-2-2-2-2-----|---------------|
|-4-----------||-4--4-4-4-4-4---|-2-2-2-2-2-2-2-----|---------------|
|-4-----------||-4--4-4-4-4-4---|-2-2-2-2-2-2-2-----|-4--2-2-4--2-2-|
|-2-----------||-2--2-2-2-2-2-0-|-0-0-0-0-0-0-0-----|-4--2-2-4--2-2-|
|-------------||----------------|---------------0-0-|-2--0-0-2--0-0-|


F#5E5opF#5E5openB A F#5E5opF#5E5open
Q E E Q E E Q E E E E E E E E E E E E E S S Q E E Q E E
|---------------|----------------|-------------------|---------------|
|---------------|-4--4-4-4-4-4---|-2-2-2-2-2-2-2-----|---------------|
|---------------|-4--4-4-4-4-4---|-2-2-2-2-2-2-2-----|---------------|
|-4--2-2-4--2-2-|-4--4-4-4-4-4---|-2-2-2-2-2-2-2-----|-4--2-2-4--2-2-|
|-4--2-2-4--2-2-|-2--2-2-2-2-2-0-|-0-0-0-0-0-0-0-----|-4--2-2-4--2-2-|
|-2--0-0-2--0-0-|----------------|---------------0-0-|-2--0-0-2--0-0-|


F#5E5opF#5E5openB A F#5E5opF#5E5open
Q E E Q E E Q E E E E E E E E E E E E E S S Q E E Q E E
|---------------|----------------|-------------------|---------------|
|---------------|-4--4-4-4-4-4---|-2-2-2-2-2-2-2-----|---------------|
|---------------|-4--4-4-4-4-4---|-2-2-2-2-2-2-2-----|---------------|
|-4--2-2-4--2-2-|-4--4-4-4-4-4---|-2-2-2-2-2-2-2-----|-4--2-2-4--2-2-|
|-4--2-2-4--2-2-|-2--2-2-2-2-2-0-|-0-0-0-0-0-0-0-----|-4--2-2-4--2-2-|
|-2--0-0-2--0-0-|----------------|---------------0-0-|-2--0-0-2--0-0-|


F#5E5opF#5E5openB A F#5E5opF#5E5open
Q E E Q E E Q E E E E E E E E E E E E E S S Q E E Q E E
|---------------|----------------|-------------------|---------------|
|---------------|-4--4-4-4-4-4---|-2-2-2-2-2-2-2-----|---------------|
|---------------|-4--4-4-4-4-4---|-2-2-2-2-2-2-2-----|---------------|
|-4--2-2-4--2-2-|-4--4-4-4-4-4---|-2-2-2-2-2-2-2-----|-4--2-2-4--2-2-|
|-4--2-2-4--2-2-|-2--2-2-2-2-2-0-|-0-0-0-0-0-0-0-----|-4--2-2-4--2-2-|
|-2--0-0-2--0-0-|----------------|---------------0-0-|-2--0-0-2--0-0-|


Guitar Solo
F#5E5opF#5E5open D5
Q E E Q E E E E E E E E E E
|---------------||-10-10-------10-10-------10-10-|
|---------------||-10-10-------10-10-------10-10-|
|---------------||-------12b14-------12b14-------|
|-4--2-2-4--2-2-||-------------------------------|
|-4--2-2-4--2-2-||-------------------------------|
|-2--0-0-2--0-0-||-------------------------------|
|
| Gtr II
| W E E E E E E E E
|---------------||-------------------------------|
|---------------||-------------------------------|
|---------------||--7-----------7-----------7----|
|---------------||--7-----------7-----------7----|
|---------------||--5--5--5-----5--5--5-----5--5-|
|---------------||-------------------------------|


E E E E E E E E +Q Q E +E E E
|-------10-10-------10-10----------|---------------------------------------|
|-------10-10-------10-10-10-13----|-(13)------13------13---------13-13----|
|-12b14-------12b14----------12b14-|-(12)b14---12b14---12b14r(12)-10-12b14-|
|----------------------------------|---------------------------------------|
|----------------------------------|---------------------------------------|
|----------------------------------|---------------------------------------|
|
| E E E E E E E E E E E E E E E E
|----------------------------------|---------------------------------------|
|----------------------------------|---------------------------------------|
|--------7-----------7--7-----7----|---7-------------7--7------7---7--7----|
|--------7-----------7--7-----7----|---7-------------7--7------7---7--7----|
|--5-----5--5--5-----5--5--5--5----|---5-----5--5----5--5------5---5--5----|
|----------------------------------|---------------------------------------|


D5
+E E E E Q E E S S E E E E E E E
|-----------------------------|----------------------10----------|
|-(13)----13-13-13------------|-------------------10----------10-|
|-(12)b14-12-10-12-10---10-10-|-12p10----10-12b14-------12b14----|
|-----------------------------|-------12-------------------------|
|-----------------------------|----------------------------------|
|-----------------------------|----------------------------------|
|
| E E E E E E E E E E E E E E E E
|-----------------------------|----------------------------------|
|-----------------------------|----------------------------------|
|----------7--7--7--7-7--7--7-|--7-----------7-----------7-------|
|----------7--7--7--7-7--7--7-|--7-----------7-----------7-------|
|---5------5--5--5--5-5--5--5-|--5-----5--5--5-----5--5--5-----5-|
|-----------------------------|----------------------------------|


E E E E E E E E S S E E E +E E E +E
|-10----------10----------10-10-|-13p10----------------------------------|
|----------10----------10-------|-------13-10-13b15r(13)-10--------------|
|----12b14-------12b14----------|---------------------------12b14r(12)---|
|-------------------------------|----------------------------------------|
|-------------------------------|----------------------------------------|
|-------------------------------|----------------------------------------|
|
| E E E E E E E E E E E E E E E E
|-------------------------------|----------------------------------------|
|-------------------------------|----------------------------------------|
|-----7-----------7-----7-----7-|--7-----------7------7---7--7------7----|
|-----7-----------7-----7-----7-|--7-----------7------7---7--7------7----|
|--5--5-----5--5--5-----5--5--5-|--5-----5--5--5------5---5--5------5----|
|-------------------------------|----------------------------------------|


D5
E S S E E Q E E S S E E Q Q E
|------------------------13-|-15-13----13-15b17---15b17---15b17-|
|---------------------------|-------15--------------------------|
|-10-10h12-10----10/--------|-----------------------------------|
|-------------12------------|-----------------------------------|
|---------------------------|-----------------------------------|
|---------------------------|-----------------------------------|
|
| E E E E E E E E E E E E E E E E
|---------------------------|-----------------------------------|
|---------------------------|-----------------------------------|
|-----7-----7--7--7--7-7--7-|--7-----------7------------7-------|
|-----7-----7--7--7--7-7--7-|--7-----------7------------7-------|
|--5--5-----5--5--5--5-5--5-|--5-----5--5--5----5--5----5--5----|
|---------------------------|-----------------------------------|


+E E E E Q E E S S S S S S S S S S S S S S E
|-(15)b17-15-13---------/10-10-|-13-12-10----------------------------------------|
|---------------15-15----------|----------13-11-10-------------------------------|
|------------------------------|-------------------12-10-10-10-10-10-10-10-12b14-|
|------------------------------|-------------------------------------------------|
|------------------------------|-------------------------------------------------|
|------------------------------|-------------------------------------------------|
|
| E E E E E E E E E E E E E E E E
|------------------------------|-------------------------------------------------|
|------------------------------|-------------------------------------------------|
|----------7--------7-7------7-|--7-----------------7-----7-----7-----7-----7----|
|----------7--------7-7------7-|--7-----------------7-----7-----7-----7-----7----|
|---5------5--5--5--5-5---5--5-|--5-----5-----5-----5-----5-----5-----5-----5----|
|------------------------------|-------------------------------------------------|


D5
PM---------------------|
+E E E E E E E E S S S S S S S S S S S S S S E
|---------10-10-------10-10-10---|------------------------------------------------|
|---------10-10-------10-10-10-x-|------------------------------------------------|
|-(12)b14-------12b14------------|-------------------------10------10-10-10-12b14-|
|--------------------------------|----------10-12-10-12-12----x-12----------------|
|--------------------------------|-10-12-12---------------------------------------|
|--------------------------------|------------------------------------------------|
|
| E E E E E E E E E E E E E E E E
|--------------------------------|------------------------------------------------|
|--------------------------------|------------------------------------------------|
|----------7--7--7-----7--7--7-7-|--7-----------------7----------------7----------|
|----------7--7--7-----7--7--7-7-|--7-----------------7----------------7----------|
|---5------5--5--5-----5--5--5-5-|--5-----5-----5-----5-----5----5-----5-----5----|
|--------------------------------|------------------------------------------------|


+E E E E E E E +E E E E E E E E E
|---------10-10-10-10-10------------|-10-------10-10-------10-10-10---|
|---------10-10-10-10-10------------|-10-------10-10-------10-10------|
|-(12)b14----------------12b14r(12)-|----12b14-------12b14------------|
|-----------------------------------|---------------------------------|
|-----------------------------------|---------------------------------|
|-----------------------------------|---------------------------------|
|
| E E E E E E E E E E E E E E E E
|-----------------------------------|---------------------------------|
|-----------------------------------|---------------------------------|
|----------7--------7--7---------7--|--7-----------7--7-----7--7--7---|
|----------7--------7--7---------7--|--7-----------7--7-----7--7--7---|
|---5------5--5--5--5--5--5------5--|--5--5-----5--5--5-----5--5--5---|
|-----------------------------------|---------------------------------|


Outro
A B
S S E E Q. Q Q Q E E E E
|-13p10---------------------||---------------|
|-------13-10-13b15r========||=2--2--2-2-2-4-|
|---------------------------||-2--2--2-2-2-4-|
|---------------------------||-2--2--2-2-2-4-|
|---------------------------||-0--0--0-0-0-2-|
|---------------------------||---------------|
|
| E E E E E E E E W
|---------------------------||---------------|
|---------------------------||---------------|
|--------7--7--7----7-7-7-7-||---------------|
|--------7--7--7----7-7-7-7-||---------------|
|--5-----5--5--5----5-5-5-5-||---------------|
|---------------------------||---------------|


D6sus2 E5
+E E Q E E E S S Q Q E E E E +E E Q E E E E
|----------------0-0-|-0--0--0-0-0---|--------------------|
|-(4)-4-4--4-4-4-0-0-|-0--0--0-0-0---|--------------------|
|-(4)-4-4--4-4-4-7-7-|-7--7--7-7-7-9-|-(9)-9-9--9-9-9-9---|
|-(4)-4-4--4-4-4-7-7-|-7--7--7-7-7-9-|-(9)-9-9--9-9-9-9---|
|-(2)-2-2--2-2-2-5-5-|-5--5--5-5-5-7-|-(7)-7-7--7-7-7-7---|
|--------------------|---------------|--------------------|
|
| W W W
|--------------------|---------------|--------------------|
|--------------------|---------------|--------------------|
|--------------------|---------------|--------------------|
|--------------------|---------------|--------------------|
|--------------------|---------------|--------------------|
|--------------------|---------------|--------------------|


A B D6sus2 E5
Q Q E E E E +E E Q E E E S S Q Q E E E E +E E Q E E E E 4x
||----------------|----------------0-0-|-0--0--0-0-0---|--------------------||
||o-2--2--2-2-2-4-|-(4)-4-4--4-4-4-0-0-|-0--0--0-0-0---|-------------------o||
||--2--2--2-2-2-4-|-(4)-4-4--4-4-4-7-7-|-7--7--7-7-7-9-|-(9)-9-9--9-9-9-9---||
||--2--2--2-2-2-4-|-(4)-4-4--4-4-4-7-7-|-7--7--7-7-7-9-|-(9)-9-9--9-9-9-9---||
||o-0--0--0-0-0-2-|-(2)-2-2--2-2-2-5-5-|-5--5--5-5-5-7-|-(7)-7-7--7-7-7-7--o||
||----------------|--------------------|---------------|--------------------||


A B D6sus2
Q Q E E E E +E E Q E E E S S
|---------------|----------------0-0-|
|-2--2--2-2-2-4-|-(4)-4-4--4-4-4-0-0-|
|-2--2--2-2-2-4-|-(4)-4-4--4-4-4-7-7-|
|-2--2--2-2-2-4-|-(4)-4-4--4-4-4-7-7-|
|-0--0--0-0-0-2-|-(2)-2-2--2-2-2-5-5-|
|---------------|--------------------|


E5 A
Q Q E E E E +E E Q E E E E E E Q H
|-0--0--0-0-0---|------------------|-------------*|
|-0--0--0-0-0---|------------------|-2-----------*|
|-7--7--7-7-7-9-|-(9)-9-9--9-9-9-9-|-2-----------*|
|-7--7--7-7-7-9-|-(9)-9-9--9-9-9-9-|-2-----------*|
|-5--5--5-5-5-7-|-(7)-7-7--7-7-7-7-|-0-----------*|
|---------------|------------------|-------------*|

Like us on Facebook.....
-> Loading Time :0.0403 sec