One Like You Tabs & Lyrics by Audio Adrenaline

One Like You

guitar tabs lyrics

Audio Adrenaline

Album : Hit Parade christian rock PlayStop



One Like You
Audio Adrenaline
CD: Hit Parade
copied from
http://www.christianguitar.org/


e-------2-2---------------------------------3-3-3-3--------------|
B-------3-3---------2--2-2---/--7-7---------3-3-3-3--------------|
G-------4-4----2-2--2--2-2---/7-7-7------0--0-0-0-0--------------|

D-------2-2----2-2--2--2-2---/7-7-7------0--0-0-0-0--------------|
A-------2-2----0-0--0--0-0---/5-5-5------------------------------|
E---0-0-0-0----------------------------0-3--3-3-2-2--------------|
Em9 A D G

e-------2-2------------------------------------------------------|
B-------3-3---------2--2-2---/--7-7---7-7-7-7-7-7----------------|
G-------4-4----2-2--2--2-2---/7-7-7---7-7-7-7-7-7----------------|
D-------2-2----2-2--2--2-2---/7-7-7---7-7-7-7-7-7----------------|
A-------2-2----0-0--0--0-0---/5-5-5---5-5-5-5-5-5----------------|
E---0-0-0-0------------------------------------------------------|
Em9 A D

Verse:
Em9 D
All I have, has come from love
A/C# Em9
I am blessed to be someone loved
D [D riff 1]
Something good's got a hold of me

Em9 A Asus
You forget
D [D riff 2] G [G riff]
That I fall apart sometimes, I cave in
Em9 A Asus A
I remember it well
D
But You never bring it back again

Chorus: (use power chords)
D Bm F#m
So I sing, sing a song
A D
From this mountaintop I'm on
Bm F#m
See it clear, see it true
A D
There could never be another One like You


Verse 2:
Friends I have
Will they be here when I'm old and gray
Troubles come
Can I be sure they will fade away

All I do
Lord I want to be there next to You
Past the bullets and the bears
You have picked me up and dragged me through


[repeat chorus, then repeat last 2 lines of chorus]


Bridge:

D Bm A/C# A

D Bm A/C# A

[chorus instrumental x1]

Chorus, quiet version:
e-------2---0-2---------2---0-2-----------------------0----------|
B-----3---3-----------3---3-------------2-----------2---2--------|
G---2---------------4-----------------2---2-------2--------------| (x2)
D-----------------------------------4----------------------------|
A----------------------------------------------------------------|
E----------------------------------------------------------------|
D Bm F#m A


[chorus]

D riff 1:
e-----0-------0----------0------0--------------------------------|
B---------2-------2----3------3----------------------------------|
G---3---3---0---0------------------------------------------------|
D--------------------4------2------4-5-0-------------------------|
A----------------------------------------------------------------|
E----------------------------------------------------------------|
D riff 2:
e-------2---0-2--------------------------------------------------|
B-----3---3------------------------------------------------------|
G---2------------------------------------------------------------|
D----------------------------------------------------------------|
A----------------------------------------------------------------|
E----------------------------------------------------------------|
G riff:
e-----3--2--0----------------------------------------------------|
B-------------3--------------------------------------------------|
G---0------------------------------------------------------------|
D----------------------------------------------------------------|
A----------------------------------------------------------------|
E----------------------------------------------------------------|

Like us on Facebook.....
-> Loading Time :0.0089 sec